  0
SECTION
  2
HEADER
  9
$ACADVER
  1
AC1027
  9
$ACADMAINTVER
 70
   105
  9
$DWGCODEPAGE
  3
ANSI_1252
  9
$COMMENTS
  1
File was created by Cadenas
  9
$LASTSAVEDBY
  1
psService
  9
$CUSTOMPROPERTYTAG
  1
NB
  9
$CUSTOMPROPERTY
  1
ECX 1512
  9
$CUSTOMPROPERTYTAG
  1
NN
  9
$CUSTOMPROPERTY
  1
ECX15XX_H79_CONT
  9
$CUSTOMPROPERTYTAG
  1
NT
  9
$CUSTOMPROPERTY
  1
ECX15XX_H79_CONT
  9
$CUSTOMPROPERTYTAG
  1
NBSYN
  9
$CUSTOMPROPERTY
  1
$NBCUSTOM.
  9
$CUSTOMPROPERTYTAG
  1
LINA
  9
$CUSTOMPROPERTY
  1
ECX 1512
  9
$CUSTOMPROPERTYTAG
  1
CATALOG
  9
$CUSTOMPROPERTY
  1
Comepi
  9
$CUSTOMPROPERTYTAG
  1
CODE
  9
$CUSTOMPROPERTY
  1
ECX 1512
  9
$CUSTOMPROPERTYTAG
  1
DSCR
  9
$CUSTOMPROPERTY
  1
Joystick with h79 unlocking with contacts included
  9
$CUSTOMPROPERTYTAG
  1
MAT
  9
$CUSTOMPROPERTY
  1
Chrome-plated Zamak
  9
$CUSTOMPROPERTYTAG
  1
MATC
  9
$CUSTOMPROPERTY
  1
Rubber coated steel
  9
$CUSTOMPROPERTYTAG
  1
COL
  9
$CUSTOMPROPERTY
  1
Nero
  9
$CUSTOMPROPERTYTAG
  1
LUM
  9
$CUSTOMPROPERTY
  1
No
  9
$CUSTOMPROPERTYTAG
  1
FUNZ
  9
$CUSTOMPROPERTY
  1
2 positions A - B maintained
  9
$CUSTOMPROPERTYTAG
  1
ALT
  9
$CUSTOMPROPERTY
  1
79
  9
$CUSTOMPROPERTYTAG
  1
DEST
  9
$CUSTOMPROPERTY
  1
30
  9
$CUSTOMPROPERTYTAG
  1
IP
  9
$CUSTOMPROPERTY
  1
65
  9
$CUSTOMPROPERTYTAG
  1
BAS
  9
$CUSTOMPROPERTY
  1
ECX 1029/P
  9
$CUSTOMPROPERTYTAG
  1
TEMP
  9
$CUSTOMPROPERTY
  1
-25 / +70
  9
$CUSTOMPROPERTYTAG
  1
STDR
  9
$CUSTOMPROPERTY
  1
IEC 60947-5-1 / IEC 60947-5-5
  9
$CUSTOMPROPERTYTAG
  1
SHOCK
  9
$CUSTOMPROPERTY
  1
Class II - Double insulation
  9
$CUSTOMPROPERTYTAG
  1
UI
  9
$CUSTOMPROPERTY
  1
660
  9
$CUSTOMPROPERTYTAG
  1
GINQ
  9
$CUSTOMPROPERTY
  1
3
  9
$CUSTOMPROPERTYTAG
  1
UL508
  9
$CUSTOMPROPERTY
  1
A300, Q300
  9
$CUSTOMPROPERTYTAG
  1
UIMPCONT
  9
$CUSTOMPROPERTY
  1
6
  9
$CUSTOMPROPERTYTAG
  1
ITH
  9
$CUSTOMPROPERTY
  1
10
  9
$CUSTOMPROPERTYTAG
  1
CTOCTO
  9
$CUSTOMPROPERTY
  1
10
  9
$CUSTOMPROPERTYTAG
  1
IEAC
  9
$CUSTOMPROPERTY
  1
24V - 10A / 240V - 6A / 400V - 4A
  9
$CUSTOMPROPERTYTAG
  1
IEDC
  9
$CUSTOMPROPERTY
  1
24V - 2,8A / 125V - 0.55A / 250V - 0.27A
  9
$CUSTOMPROPERTYTAG
  1
RESCONT
  9
$CUSTOMPROPERTY
  1
25
  9
$CUSTOMPROPERTYTAG
  1
FREQCOMM
  9
$CUSTOMPROPERTY
  1
3600
  9
$CUSTOMPROPERTYTAG
  1
MARK
  9
$CUSTOMPROPERTY
  1
According to EN 60947-5-1
  9
$CUSTOMPROPERTYTAG
  1
MECC
  9
$CUSTOMPROPERTY
  1
0.3
  9
$CUSTOMPROPERTYTAG
  1
B10D
  9
$CUSTOMPROPERTY
  1
0.6
  9
$CUSTOMPROPERTYTAG
  1
COMPANY
  9
$CUSTOMPROPERTY
  1
comepi
  9
$REQUIREDVERSIONS
160
                 0
  9
$INSBASE
 10
0.0
 20
0.0
 30
0.0
  9
$EXTMIN
 10
-90.92872080858172
 20
-19.89999999999792
 30
0.0
  9
$EXTMAX
 10
34.92237288135784
 20
20.40542372881564
 30
0.0
  9
$LIMMIN
 10
0.0
 20
0.0
  9
$LIMMAX
 10
420.0
 20
297.0
  9
$ORTHOMODE
 70
     0
  9
$REGENMODE
 70
     1
  9
$FILLMODE
 70
     1
  9
$QTEXTMODE
 70
     0
  9
$MIRRTEXT
 70
     1
  9
$LTSCALE
 40
1.0
  9
$ATTMODE
 70
     1
  9
$TEXTSIZE
 40
2.5
  9
$TRACEWID
 40
1.0
  9
$TEXTSTYLE
  7
Standard
  9
$CLAYER
  8
0
  9
$CELTYPE
  6
ByLayer
  9
$CECOLOR
 62
   256
  9
$CELTSCALE
 40
1.0
  9
$DISPSILH
 70
     0
  9
$DIMSCALE
 40
1.0
  9
$DIMASZ
 40
2.5
  9
$DIMEXO
 40
0.625
  9
$DIMDLI
 40
3.75
  9
$DIMRND
 40
0.0
  9
$DIMDLE
 40
0.0
  9
$DIMEXE
 40
1.25
  9
$DIMTP
 40
0.0
  9
$DIMTM
 40
0.0
  9
$DIMTXT
 40
2.5
  9
$DIMCEN
 40
2.5
  9
$DIMTSZ
 40
0.0
  9
$DIMTOL
 70
     0
  9
$DIMLIM
 70
     0
  9
$DIMTIH
 70
     0
  9
$DIMTOH
 70
     0
  9
$DIMSE1
 70
     0
  9
$DIMSE2
 70
     0
  9
$DIMTAD
 70
     1
  9
$DIMZIN
 70
     8
  9
$DIMBLK
  1

  9
$DIMASO
 70
     1
  9
$DIMSHO
 70
     1
  9
$DIMPOST
  1

  9
$DIMAPOST
  1

  9
$DIMALT
 70
     0
  9
$DIMALTD
 70
     3
  9
$DIMALTF
 40
0.03937007874016
  9
$DIMLFAC
 40
1.0
  9
$DIMTOFL
 70
     1
  9
$DIMTVP
 40
0.0
  9
$DIMTIX
 70
     0
  9
$DIMSOXD
 70
     0
  9
$DIMSAH
 70
     0
  9
$DIMBLK1
  1

  9
$DIMBLK2
  1

  9
$DIMSTYLE
  2
ISO-25
  9
$DIMCLRD
 70
     0
  9
$DIMCLRE
 70
     0
  9
$DIMCLRT
 70
     0
  9
$DIMTFAC
 40
1.0
  9
$DIMGAP
 40
0.625
  9
$DIMJUST
 70
     0
  9
$DIMSD1
 70
     0
  9
$DIMSD2
 70
     0
  9
$DIMTOLJ
 70
     0
  9
$DIMTZIN
 70
     8
  9
$DIMALTZ
 70
     0
  9
$DIMALTTZ
 70
     0
  9
$DIMUPT
 70
     0
  9
$DIMDEC
 70
     2
  9
$DIMTDEC
 70
     2
  9
$DIMALTU
 70
     2
  9
$DIMALTTD
 70
     3
  9
$DIMTXSTY
  7
Standard
  9
$DIMAUNIT
 70
     0
  9
$DIMADEC
 70
     0
  9
$DIMALTRND
 40
0.0
  9
$DIMAZIN
 70
     0
  9
$DIMDSEP
 70
    44
  9
$DIMATFIT
 70
     3
  9
$DIMFRAC
 70
     0
  9
$DIMLDRBLK
  1

  9
$DIMLUNIT
 70
     2
  9
$DIMLWD
 70
    -2
  9
$DIMLWE
 70
    -2
  9
$DIMTMOVE
 70
     0
  9
$DIMFXL
 40
1.0
  9
$DIMFXLON
 70
     0
  9
$DIMJOGANG
 40
0.7853981633974483
  9
$DIMTFILL
 70
     0
  9
$DIMTFILLCLR
 70
     0
  9
$DIMARCSYM
 70
     0
  9
$DIMLTYPE
  6

  9
$DIMLTEX1
  6

  9
$DIMLTEX2
  6

  9
$DIMTXTDIRECTION
 70
     0
  9
$LUNITS
 70
     2
  9
$LUPREC
 70
     4
  9
$SKETCHINC
 40
1.0
  9
$FILLETRAD
 40
0.0
  9
$AUNITS
 70
     0
  9
$AUPREC
 70
     0
  9
$MENU
  1
.
  9
$ELEVATION
 40
0.0
  9
$PELEVATION
 40
0.0
  9
$THICKNESS
 40
0.0
  9
$LIMCHECK
 70
     0
  9
$CHAMFERA
 40
0.0
  9
$CHAMFERB
 40
0.0
  9
$CHAMFERC
 40
0.0
  9
$CHAMFERD
 40
0.0
  9
$SKPOLY
 70
     0
  9
$TDCREATE
 40
2460938.665268959
  9
$TDUCREATE
 40
2460938.581935625
  9
$TDUPDATE
 40
2460938.665269503
  9
$TDUUPDATE
 40
2460938.581936169
  9
$TDINDWG
 40
0.0000000116
  9
$TDUSRTIMER
 40
0.0000000116
  9
$USRTIMER
 70
     1
  9
$ANGBASE
 50
0.0
  9
$ANGDIR
 70
     0
  9
$PDMODE
 70
     0
  9
$PDSIZE
 40
0.0
  9
$PLINEWID
 40
0.0
  9
$SPLFRAME
 70
     0
  9
$SPLINETYPE
 70
     6
  9
$SPLINESEGS
 70
     8
  9
$HANDSEED
  5
618
  9
$SURFTAB1
 70
     6
  9
$SURFTAB2
 70
     6
  9
$SURFTYPE
 70
     6
  9
$SURFU
 70
     6
  9
$SURFV
 70
     6
  9
$UCSBASE
  2

  9
$UCSNAME
  2

  9
$UCSORG
 10
0.0
 20
0.0
 30
0.0
  9
$UCSXDIR
 10
1.0
 20
0.0
 30
0.0
  9
$UCSYDIR
 10
0.0
 20
1.0
 30
0.0
  9
$UCSORTHOREF
  2

  9
$UCSORTHOVIEW
 70
     0
  9
$UCSORGTOP
 10
0.0
 20
0.0
 30
0.0
  9
$UCSORGBOTTOM
 10
0.0
 20
0.0
 30
0.0
  9
$UCSORGLEFT
 10
0.0
 20
0.0
 30
0.0
  9
$UCSORGRIGHT
 10
0.0
 20
0.0
 30
0.0
  9
$UCSORGFRONT
 10
0.0
 20
0.0
 30
0.0
  9
$UCSORGBACK
 10
0.0
 20
0.0
 30
0.0
  9
$PUCSBASE
  2

  9
$PUCSNAME
  2

  9
$PUCSORG
 10
0.0
 20
0.0
 30
0.0
  9
$PUCSXDIR
 10
1.0
 20
0.0
 30
0.0
  9
$PUCSYDIR
 10
0.0
 20
1.0
 30
0.0
  9
$PUCSORTHOREF
  2

  9
$PUCSORTHOVIEW
 70
     0
  9
$PUCSORGTOP
 10
0.0
 20
0.0
 30
0.0
  9
$PUCSORGBOTTOM
 10
0.0
 20
0.0
 30
0.0
  9
$PUCSORGLEFT
 10
0.0
 20
0.0
 30
0.0
  9
$PUCSORGRIGHT
 10
0.0
 20
0.0
 30
0.0
  9
$PUCSORGFRONT
 10
0.0
 20
0.0
 30
0.0
  9
$PUCSORGBACK
 10
0.0
 20
0.0
 30
0.0
  9
$USERI1
 70
     0
  9
$USERI2
 70
     0
  9
$USERI3
 70
     0
  9
$USERI4
 70
     0
  9
$USERI5
 70
     0
  9
$USERR1
 40
0.0
  9
$USERR2
 40
0.0
  9
$USERR3
 40
0.0
  9
$USERR4
 40
0.0
  9
$USERR5
 40
0.0
  9
$WORLDVIEW
 70
     1
  9
$SHADEDGE
 70
     3
  9
$SHADEDIF
 70
    70
  9
$TILEMODE
 70
     1
  9
$MAXACTVP
 70
    64
  9
$PINSBASE
 10
0.0
 20
0.0
 30
0.0
  9
$PLIMCHECK
 70
     0
  9
$PEXTMIN
 10
1.000000000000000E+20
 20
1.000000000000000E+20
 30
1.000000000000000E+20
  9
$PEXTMAX
 10
-1.000000000000000E+20
 20
-1.000000000000000E+20
 30
-1.000000000000000E+20
  9
$PLIMMIN
 10
0.0
 20
0.0
  9
$PLIMMAX
 10
420.0
 20
297.0
  9
$UNITMODE
 70
     0
  9
$VISRETAIN
 70
     1
  9
$PLINEGEN
 70
     0
  9
$PSLTSCALE
 70
     1
  9
$TREEDEPTH
 70
  3020
  9
$CMLSTYLE
  2
Standard
  9
$CMLJUST
 70
     0
  9
$CMLSCALE
 40
20.0
  9
$PROXYGRAPHICS
 70
     1
  9
$MEASUREMENT
 70
     1
  9
$CELWEIGHT
370
    -1
  9
$ENDCAPS
280
     0
  9
$JOINSTYLE
280
     0
  9
$LWDISPLAY
290
     0
  9
$INSUNITS
 70
     4
  9
$HYPERLINKBASE
  1

  9
$STYLESHEET
  1

  9
$XEDIT
290
     1
  9
$CEPSNTYPE
380
     0
  9
$PSTYLEMODE
290
     1
  9
$FINGERPRINTGUID
  2
{f3a056c1-fb41-495f-8373-1c014b400235}
  9
$VERSIONGUID
  2
{FAEB1C32-E019-11D5-929B-00C0DF256EC4}
  9
$EXTNAMES
290
     1
  9
$PSVPSCALE
 40
0.0
  9
$OLESTARTUP
290
     0
  9
$SORTENTS
280
   127
  9
$INDEXCTL
280
     0
  9
$HIDETEXT
280
     1
  9
$XCLIPFRAME
280
     2
  9
$HALOGAP
280
     0
  9
$OBSCOLOR
 70
   257
  9
$OBSLTYPE
280
     0
  9
$INTERSECTIONDISPLAY
280
     0
  9
$INTERSECTIONCOLOR
 70
   257
  9
$DIMASSOC
280
     2
  9
$PROJECTNAME
  1

  9
$CAMERADISPLAY
290
     0
  9
$LENSLENGTH
 40
50.0
  9
$CAMERAHEIGHT
 40
0.0
  9
$STEPSPERSEC
 40
2.0
  9
$STEPSIZE
 40
6.0
  9
$3DDWFPREC
 40
2.0
  9
$PSOLWIDTH
 40
5.0
  9
$PSOLHEIGHT
 40
80.0
  9
$LOFTANG1
 40
1.570796326794897
  9
$LOFTANG2
 40
1.570796326794897
  9
$LOFTMAG1
 40
0.0
  9
$LOFTMAG2
 40
0.0
  9
$LOFTPARAM
 70
     7
  9
$LOFTNORMALS
280
     1
  9
$LATITUDE
 40
37.795
  9
$LONGITUDE
 40
-122.394
  9
$NORTHDIRECTION
 40
0.0
  9
$TIMEZONE
 70
 -8000
  9
$LIGHTGLYPHDISPLAY
280
     1
  9
$TILEMODELIGHTSYNCH
280
     1
  9
$CMATERIAL
347
44
  9
$SOLIDHIST
280
     0
  9
$SHOWHIST
280
     1
  9
$DWFFRAME
280
     2
  9
$DGNFRAME
280
     2
  9
$REALWORLDSCALE
290
     1
  9
$INTERFERECOLOR
 62
   256
  9
$CSHADOW
280
     0
  9
$SHADOWPLANELOCATION
 40
0.0
  0
ENDSEC
  0
SECTION
  2
CLASSES
  0
CLASS
  1
ACDBDICTIONARYWDFLT
  2
AcDbDictionaryWithDefault
  3
ObjectDBX Classes
 90
        0
 91
        3
280
     0
281
     0
  0
CLASS
  1
VISUALSTYLE
  2
AcDbVisualStyle
  3
ObjectDBX Classes
 90
     4095
 91
        3
280
     0
281
     0
  0
CLASS
  1
MATERIAL
  2
AcDbMaterial
  3
ObjectDBX Classes
 90
     1153
 91
        3
280
     0
281
     0
  0
CLASS
  1
SCALE
  2
AcDbScale
  3
ObjectDBX Classes
 90
     1153
 91
        3
280
     0
281
     0
  0
CLASS
  1
TABLESTYLE
  2
AcDbTableStyle
  3
ObjectDBX Classes
 90
     4095
 91
        3
280
     0
281
     0
  0
CLASS
  1
MLEADERSTYLE
  2
AcDbMLeaderStyle
  3
ACDB_MLEADERSTYLE_CLASS
 90
     4095
 91
        3
280
     0
281
     0
  0
CLASS
  1
SUN
  2
AcDbSun
  3
SCENEOE
 90
     1153
 91
        3
280
     0
281
     0
  0
CLASS
  1
DICTIONARYVAR
  2
AcDbDictionaryVar
  3
ObjectDBX Classes
 90
        0
 91
        3
280
     0
281
     0
  0
CLASS
  1
CELLSTYLEMAP
  2
AcDbCellStyleMap
  3
ObjectDBX Classes
 90
     1152
 91
        3
280
     0
281
     0
  0
ENDSEC
  0
SECTION
  2
TABLES
  0
TABLE
  2
VPORT
  5
8
330
0
100
AcDbSymbolTable
 70
     1
  0
VPORT
  5
29
330
8
100
AcDbSymbolTableRecord
100
AcDbViewportTableRecord
  2
*Active
 70
     0
 10
0.0
 20
0.0
 11
1.0
 21
1.0
 12
-27.96436040428989
 22
0.30169491525632
 13
0.0
 23
0.0
 14
10.0
 24
10.0
 15
10.0
 25
10.0
 16
0.0
 26
0.0
 36
1.0
 17
0.0
 27
0.0
 37
0.0
 40
41.21145762711866
 41
3.116786025550144
 42
50.0
 43
0.0
 44
0.0
 50
0.0
 51
0.0
 71
     0
 72
   100
 73
     1
 74
     3
 75
     0
 76
     0
 77
     0
 78
     0
281
     0
 65
     1
110
0.0
120
0.0
130
0.0
111
1.0
121
0.0
131
0.0
112
0.0
122
1.0
132
0.0
 79
     0
146
0.0
348
2F
 60
     3
 61
     5
292
     1
282
     1
141
0.0
142
0.0
 63
   250
361
5D
  0
ENDTAB
  0
TABLE
  2
LTYPE
  5
5
330
0
100
AcDbSymbolTable
 70
     3
  0
LTYPE
  5
14
330
5
100
AcDbSymbolTableRecord
100
AcDbLinetypeTableRecord
  2
ByBlock
 70
     0
  3

 72
    65
 73
     0
 40
0.0
  0
LTYPE
  5
15
330
5
100
AcDbSymbolTableRecord
100
AcDbLinetypeTableRecord
  2
ByLayer
 70
     0
  3

 72
    65
 73
     0
 40
0.0
  0
LTYPE
  5
16
330
5
100
AcDbSymbolTableRecord
100
AcDbLinetypeTableRecord
  2
Continuous
 70
     0
  3
Solid line
 72
    65
 73
     0
 40
0.0
  0
LTYPE
  5
86
330
5
100
AcDbSymbolTableRecord
100
AcDbLinetypeTableRecord
  2
Dashed
 70
     0
  3

 72
    65
 73
     2
 40
2.0
 49
1.0
 74
     0
 49
-1.0
 74
     0
  0
LTYPE
  5
5EB
330
5
100
AcDbSymbolTableRecord
100
AcDbLinetypeTableRecord
  2
Center
 70
     0
  3

 72
    65
 73
     4
 40
1.5
 49
0.45
 74
     0
 49
-0.5
 74
     0
 49
0.05
 74
     0
 49
-0.5
 74
     0
  0
ENDTAB
  0
TABLE
  2
LAYER
  5
2
330
0
100
AcDbSymbolTable
 70
     6
  0
LAYER
  5
10
330
2
100
AcDbSymbolTableRecord
100
AcDbLayerTableRecord
  2
0
 70
     0
 62
     7
  6
Continuous
370
    -3
390
F
347
46
348
0
  0
LAYER
  5
5E
330
2
100
AcDbSymbolTableRecord
100
AcDbLayerTableRecord
  2
AM_6
 70
     0
 62
    -2
  6
Continuous
370
    35
390
F
347
46
348
0
  0
LAYER
  5
87
330
2
100
AcDbSymbolTableRecord
100
AcDbLayerTableRecord
  2
AM_9
 70
     0
 62
     6
  6
Dashed
370
    25
390
F
347
46
348
0
  0
LAYER
  5
DF
330
2
100
AcDbSymbolTableRecord
100
AcDbLayerTableRecord
  2
AM_0
 70
     0
 62
     7
  6
Continuous
370
    50
390
F
347
46
348
0
  0
LAYER
  5
287
330
2
100
AcDbSymbolTableRecord
100
AcDbLayerTableRecord
  2
AM_4
 70
     0
 62
     3
  6
Continuous
370
    25
390
F
347
46
348
0
  0
LAYER
  5
5EC
330
2
100
AcDbSymbolTableRecord
100
AcDbLayerTableRecord
  2
AM_7
 70
     0
 62
     7
  6
Center
370
    25
390
F
347
46
348
0
  0
ENDTAB
  0
TABLE
  2
STYLE
  5
3
330
0
100
AcDbSymbolTable
 70
     1
  0
STYLE
  5
11
330
3
100
AcDbSymbolTableRecord
100
AcDbTextStyleTableRecord
  2
Standard
 70
     0
 40
0.0
 41
1.0
 50
0.0
 71
     0
 42
2.5
  3
txt
  4

  0
ENDTAB
  0
TABLE
  2
VIEW
  5
6
330
0
100
AcDbSymbolTable
 70
     0
  0
ENDTAB
  0
TABLE
  2
UCS
  5
7
330
0
100
AcDbSymbolTable
 70
     0
  0
ENDTAB
  0
TABLE
  2
APPID
  5
9
330
0
100
AcDbSymbolTable
 70
     1
  0
APPID
  5
12
330
9
100
AcDbSymbolTableRecord
100
AcDbRegAppTableRecord
  2
ACAD
 70
     0
  0
ENDTAB
  0
TABLE
  2
DIMSTYLE
  5
A
330
0
100
AcDbSymbolTable
 70
     1
100
AcDbDimStyleTable
  0
DIMSTYLE
105
27
330
A
100
AcDbSymbolTableRecord
100
AcDbDimStyleTableRecord
  2
ISO-25
 70
     0
 41
2.5
 42
0.625
 43
3.75
 44
1.25
 73
     0
 74
     0
 77
     1
 78
     8
140
2.5
141
2.5
143
0.03937007874016
147
0.625
171
     3
172
     1
178
     0
271
     2
272
     2
274
     3
278
    44
283
     0
284
     8
340
11
  0
ENDTAB
  0
TABLE
  2
BLOCK_RECORD
  5
1
330
0
100
AcDbSymbolTable
 70
     1
  0
BLOCK_RECORD
  5
1F
330
1
100
AcDbSymbolTableRecord
100
AcDbBlockTableRecord
  2
*Model_Space
340
22
 70
     0
280
     1
281
     0
  0
BLOCK_RECORD
  5
1B
330
1
100
AcDbSymbolTableRecord
100
AcDbBlockTableRecord
  2
*Paper_Space
340
1E
 70
     0
280
     1
281
     0
  0
BLOCK_RECORD
  5
23
330
1
100
AcDbSymbolTableRecord
100
AcDbBlockTableRecord
  2
*Paper_Space0
340
26
 70
     0
280
     1
281
     0
  0
ENDTAB
  0
ENDSEC
  0
SECTION
  2
BLOCKS
  0
BLOCK
  5
20
330
1F
100
AcDbEntity
  8
0
100
AcDbBlockBegin
  2
*Model_Space
 70
     2
 10
0.0
 20
0.0
 30
0.0
  3
*Model_Space
  1

  0
ENDBLK
  5
21
330
1F
100
AcDbEntity
  8
0
100
AcDbBlockEnd
  0
BLOCK
  5
1C
330
1B
100
AcDbEntity
 67
     1
  8
0
100
AcDbBlockBegin
  2
*Paper_Space
 70
     0
 10
0.0
 20
0.0
 30
0.0
  3
*Paper_Space
  1

  0
ENDBLK
  5
1D
330
1B
100
AcDbEntity
 67
     1
  8
0
100
AcDbBlockEnd
  0
BLOCK
  5
24
330
23
100
AcDbEntity
  8
0
100
AcDbBlockBegin
  2
*Paper_Space0
 70
     0
 10
0.0
 20
0.0
 30
0.0
  3
*Paper_Space0
  1

  0
ENDBLK
  5
25
330
23
100
AcDbEntity
  8
0
100
AcDbBlockEnd
  0
ENDSEC
  0
SECTION
  2
ENTITIES
  0
ATTDEF
  5
5F
330
1F
100
AcDbEntity
  8
AM_6
100
AcDbText
 10
31.00000000000191
 20
19.90000000000208
 30
0.0
 40
0.5
  1
ECX 1512
100
AcDbAttributeDefinition
  3

  2
NB
 70
     8
280
     0
  0
ATTDEF
  5
60
330
1F
100
AcDbEntity
  8
AM_6
100
AcDbText
 10
31.00000000000191
 20
19.40000000000208
 30
0.0
 40
0.5
  1
ECX15XX_H79_CONT
100
AcDbAttributeDefinition
  3

  2
NN
 70
     8
280
     0
  0
ATTDEF
  5
61
330
1F
100
AcDbEntity
  8
AM_6
100
AcDbText
 10
31.00000000000191
 20
18.90000000000208
 30
0.0
 40
0.5
  1
ECX15XX_H79_CONT
100
AcDbAttributeDefinition
  3

  2
NT
 70
     8
280
     0
  0
ATTDEF
  5
62
330
1F
100
AcDbEntity
  8
AM_6
100
AcDbText
 10
31.00000000000191
 20
18.40000000000208
 30
0.0
 40
0.5
  1
$NBCUSTOM.
100
AcDbAttributeDefinition
  3

  2
NBSYN
 70
     8
280
     0
  0
ATTDEF
  5
63
330
1F
100
AcDbEntity
  8
AM_6
100
AcDbText
 10
31.00000000000191
 20
17.90000000000208
 30
0.0
 40
0.5
  1
ECX 1512
100
AcDbAttributeDefinition
  3

  2
LINA
 70
     8
280
     0
  0
ATTDEF
  5
64
330
1F
100
AcDbEntity
  8
AM_6
100
AcDbText
 10
31.00000000000191
 20
17.40000000000208
 30
0.0
 40
0.5
  1
Comepi
100
AcDbAttributeDefinition
  3

  2
CATALOG
 70
     8
280
     0
  0
ATTDEF
  5
65
330
1F
100
AcDbEntity
  8
AM_6
100
AcDbText
 10
31.00000000000191
 20
16.90000000000208
 30
0.0
 40
0.5
  1
ECX 1512
100
AcDbAttributeDefinition
  3

  2
CODE
 70
     8
280
     0
  0
ATTDEF
  5
66
330
1F
100
AcDbEntity
  8
AM_6
100
AcDbText
 10
31.00000000000191
 20
16.40000000000208
 30
0.0
 40
0.5
  1
Joystick with h79 unlocking with contacts included
100
AcDbAttributeDefinition
  3

  2
DSCR
 70
     8
280
     0
  0
ATTDEF
  5
67
330
1F
100
AcDbEntity
  8
AM_6
100
AcDbText
 10
31.00000000000191
 20
15.90000000000208
 30
0.0
 40
0.5
  1
Chrome-plated Zamak
100
AcDbAttributeDefinition
  3

  2
MAT
 70
     8
280
     0
  0
ATTDEF
  5
68
330
1F
100
AcDbEntity
  8
AM_6
100
AcDbText
 10
31.00000000000191
 20
15.40000000000208
 30
0.0
 40
0.5
  1
Rubber coated steel
100
AcDbAttributeDefinition
  3

  2
MATC
 70
     8
280
     0
  0
ATTDEF
  5
69
330
1F
100
AcDbEntity
  8
AM_6
100
AcDbText
 10
31.00000000000191
 20
14.90000000000208
 30
0.0
 40
0.5
  1
Nero
100
AcDbAttributeDefinition
  3

  2
COL
 70
     8
280
     0
  0
ATTDEF
  5
6A
330
1F
100
AcDbEntity
  8
AM_6
100
AcDbText
 10
31.00000000000191
 20
14.40000000000208
 30
0.0
 40
0.5
  1
No
100
AcDbAttributeDefinition
  3

  2
LUM
 70
     8
280
     0
  0
ATTDEF
  5
6B
330
1F
100
AcDbEntity
  8
AM_6
100
AcDbText
 10
31.00000000000191
 20
13.90000000000208
 30
0.0
 40
0.5
  1
2 positions A - B maintained
100
AcDbAttributeDefinition
  3

  2
FUNZ
 70
     8
280
     0
  0
ATTDEF
  5
6C
330
1F
100
AcDbEntity
  8
AM_6
100
AcDbText
 10
31.00000000000191
 20
13.40000000000208
 30
0.0
 40
0.5
  1
79
100
AcDbAttributeDefinition
  3

  2
ALT
 70
     8
280
     0
  0
ATTDEF
  5
6D
330
1F
100
AcDbEntity
  8
AM_6
100
AcDbText
 10
31.00000000000191
 20
12.90000000000208
 30
0.0
 40
0.5
  1
30
100
AcDbAttributeDefinition
  3

  2
DEST
 70
     8
280
     0
  0
ATTDEF
  5
6E
330
1F
100
AcDbEntity
  8
AM_6
100
AcDbText
 10
31.00000000000191
 20
12.40000000000208
 30
0.0
 40
0.5
  1
65
100
AcDbAttributeDefinition
  3

  2
IP
 70
     8
280
     0
  0
ATTDEF
  5
6F
330
1F
100
AcDbEntity
  8
AM_6
100
AcDbText
 10
31.00000000000191
 20
11.90000000000208
 30
0.0
 40
0.5
  1
ECX 1029/P
100
AcDbAttributeDefinition
  3

  2
BAS
 70
     8
280
     0
  0
ATTDEF
  5
70
330
1F
100
AcDbEntity
  8
AM_6
100
AcDbText
 10
31.00000000000191
 20
11.40000000000208
 30
0.0
 40
0.5
  1
-25 / +70
100
AcDbAttributeDefinition
  3

  2
TEMP
 70
     8
280
     0
  0
ATTDEF
  5
71
330
1F
100
AcDbEntity
  8
AM_6
100
AcDbText
 10
31.00000000000191
 20
10.90000000000208
 30
0.0
 40
0.5
  1
IEC 60947-5-1 / IEC 60947-5-5
100
AcDbAttributeDefinition
  3

  2
STDR
 70
     8
280
     0
  0
ATTDEF
  5
72
330
1F
100
AcDbEntity
  8
AM_6
100
AcDbText
 10
31.00000000000191
 20
10.40000000000208
 30
0.0
 40
0.5
  1
Class II - Double insulation
100
AcDbAttributeDefinition
  3

  2
SHOCK
 70
     8
280
     0
  0
ATTDEF
  5
73
330
1F
100
AcDbEntity
  8
AM_6
100
AcDbText
 10
31.00000000000191
 20
9.900000000002084
 30
0.0
 40
0.5
  1
660
100
AcDbAttributeDefinition
  3

  2
UI
 70
     8
280
     0
  0
ATTDEF
  5
74
330
1F
100
AcDbEntity
  8
AM_6
100
AcDbText
 10
31.00000000000191
 20
9.400000000002084
 30
0.0
 40
0.5
  1
3
100
AcDbAttributeDefinition
  3

  2
GINQ
 70
     8
280
     0
  0
ATTDEF
  5
75
330
1F
100
AcDbEntity
  8
AM_6
100
AcDbText
 10
31.00000000000191
 20
8.900000000002084
 30
0.0
 40
0.5
  1
A300, Q300
100
AcDbAttributeDefinition
  3

  2
UL508
 70
     8
280
     0
  0
ATTDEF
  5
76
330
1F
100
AcDbEntity
  8
AM_6
100
AcDbText
 10
31.00000000000191
 20
8.400000000002084
 30
0.0
 40
0.5
  1
6
100
AcDbAttributeDefinition
  3

  2
UIMPCONT
 70
     8
280
     0
  0
ATTDEF
  5
77
330
1F
100
AcDbEntity
  8
AM_6
100
AcDbText
 10
31.00000000000191
 20
7.900000000002084
 30
0.0
 40
0.5
  1
10
100
AcDbAttributeDefinition
  3

  2
ITH
 70
     8
280
     0
  0
ATTDEF
  5
78
330
1F
100
AcDbEntity
  8
AM_6
100
AcDbText
 10
31.00000000000191
 20
7.400000000002084
 30
0.0
 40
0.5
  1
10
100
AcDbAttributeDefinition
  3

  2
CTOCTO
 70
     8
280
     0
  0
ATTDEF
  5
79
330
1F
100
AcDbEntity
  8
AM_6
100
AcDbText
 10
31.00000000000191
 20
6.900000000002084
 30
0.0
 40
0.5
  1
24V - 10A / 240V - 6A / 400V - 4A
100
AcDbAttributeDefinition
  3

  2
IEAC
 70
     8
280
     0
  0
ATTDEF
  5
7A
330
1F
100
AcDbEntity
  8
AM_6
100
AcDbText
 10
31.00000000000191
 20
6.400000000002084
 30
0.0
 40
0.5
  1
24V - 2,8A / 125V - 0.55A / 250V - 0.27A
100
AcDbAttributeDefinition
  3

  2
IEDC
 70
     8
280
     0
  0
ATTDEF
  5
7B
330
1F
100
AcDbEntity
  8
AM_6
100
AcDbText
 10
31.00000000000191
 20
5.900000000002084
 30
0.0
 40
0.5
  1
25
100
AcDbAttributeDefinition
  3

  2
RESCONT
 70
     8
280
     0
  0
ATTDEF
  5
7C
330
1F
100
AcDbEntity
  8
AM_6
100
AcDbText
 10
31.00000000000191
 20
5.400000000002084
 30
0.0
 40
0.5
  1
3600
100
AcDbAttributeDefinition
  3

  2
FREQCOMM
 70
     8
280
     0
  0
ATTDEF
  5
7D
330
1F
100
AcDbEntity
  8
AM_6
100
AcDbText
 10
31.00000000000191
 20
4.900000000002084
 30
0.0
 40
0.5
  1
According to EN 60947-5-1
100
AcDbAttributeDefinition
  3

  2
MARK
 70
     8
280
     0
  0
ATTDEF
  5
7E
330
1F
100
AcDbEntity
  8
AM_6
100
AcDbText
 10
31.00000000000191
 20
4.400000000002084
 30
0.0
 40
0.5
  1
0.3
100
AcDbAttributeDefinition
  3

  2
MECC
 70
     8
280
     0
  0
ATTDEF
  5
7F
330
1F
100
AcDbEntity
  8
AM_6
100
AcDbText
 10
31.00000000000191
 20
3.900000000002084
 30
0.0
 40
0.5
  1
0.6
100
AcDbAttributeDefinition
  3

  2
B10D
 70
     8
280
     0
  0
ATTDEF
  5
80
330
1F
100
AcDbEntity
  8
AM_6
100
AcDbText
 10
31.00000000000191
 20
3.400000000002084
 30
0.0
 40
0.5
  1
comepi
100
AcDbAttributeDefinition
  3

  2
COMPANY
 70
     8
280
     0
  0
ATTDEF
  5
81
330
1F
100
AcDbEntity
  8
AM_6
100
AcDbText
 10
31.00000000000191
 20
2.900000000002084
 30
0.0
 40
0.5
  1
{$CADENAS_DATA/23d-libs/comepi/control_units/pushbottons/1000_series/joysticks/ecx15xx_h79_oystickh79_contatti20inclusi.prj},167 {VTYP=3D},{NB=ECX 1512},{LINA=ECX 1512},{NN=ECX15XX_H79_CONT},{DATE=05.06.2025 10:49:15},{GEOMDATE=07.02.2025 13:51:38},
100
AcDbAttributeDefinition
  3

  2
PSOL_0
 70
     9
280
     0
  0
ATTDEF
  5
82
330
1F
100
AcDbEntity
  8
AM_6
100
AcDbText
 10
31.00000000000191
 20
2.400000000002084
 30
0.0
 40
0.5
  1
ON=},{LINEID=100},{WBVAR=},{WBNUMERIC=}  {NB=ECX 1512},{LINA=ECX 1512},{KT=DUMMY},{CODE=ECX 1512},{DSCR=Joystick h79 con contatti inclusi},{MAT=Zama cromata},{MATC=Acciaio rivestito in gomma},{COL=Nero},{LUM=No},{FUNZ=2 posizioni A - B mantenute},{A
100
AcDbAttributeDefinition
  3

  2
PSOL_1
 70
     9
280
     0
  0
ATTDEF
  5
83
330
1F
100
AcDbEntity
  8
AM_6
100
AcDbText
 10
31.00000000000191
 20
1.900000000002084
 30
0.0
 40
0.5
  1
,{DEST=30},{IP=65},{BAS=ECX 1029/P},{TEMP=-25 / +70},{STDR=IEC 60947-5-1 / IEC 60947-5-5},{SHOCK=Classe II - Doppio isolamento},{UI=660},{GINQ=3},{UL508=A300, Q300},{UIMPCONT=6},{ITH=10},{CTOCTO=10},{IEAC=24V - 10A / 240V - 6A / 400V - 4A},{IEDC=24V
100
AcDbAttributeDefinition
  3

  2
PSOL_2
 70
     9
280
     0
  0
ATTDEF
  5
84
330
1F
100
AcDbEntity
  8
AM_6
100
AcDbText
 10
31.00000000000191
 20
1.400000000002084
 30
0.0
 40
0.5
  1
A / 125V - 0.55A / 250V - 0.27A},{RESCONT=25},{FREQCOMM=3600},{MARK=Secondo EN 60947-5-1},{MECC=0.3},{B10D=0.6},{NBCUSTOM=ECX 1512},{VAR_IS_FAMILY_TABLE=},{VAR_IS_INSTANCE=},{VAR_OBJECT_FLAGS=},{NNCUSTOM=ECX15XX_H79_CONT},{LINACUSTOM=ECX 1512},{STEP
100
AcDbAttributeDefinition
  3

  2
PSOL_3
 70
     9
280
     0
  0
ATTDEF
  5
85
330
1F
100
AcDbEntity
  8
AM_6
100
AcDbText
 10
31.00000000000191
 20
0.900000000002084
 30
0.0
 40
0.5
  1
TP_ECX151_2P.stp},{PNGFILE=IMG_ECX15XX_H79_CONT.png},{DWGFILE=ECX151_2P},{PRJNAME=}
100
AcDbAttributeDefinition
  3

  2
PSOL_4
 70
     9
280
     0
  0
LINE
  5
88
330
1F
100
AcDbEntity
  8
AM_9
100
AcDbLine
 10
-0.8000000000000931
 20
-17.43938218042007
 30
0.0
 11
-0.5000000000000984
 21
-17.43938218042007
 31
0.0
  0
LINE
  5
89
330
1F
100
AcDbEntity
  8
AM_9
100
AcDbLine
 10
-0.8000000000000931
 20
-19.03025342437618
 30
0.0
 11
-0.5000000000000984
 21
-19.03025342437618
 31
0.0
  0
LWPOLYLINE
  5
8A
330
1F
100
AcDbEntity
  8
AM_9
100
AcDbPolyline
 90
       13
 70
     0
 43
0.0
 10
-0.0193500437324505
 20
16.86648683277926
 10
-0.0193450576799502
 20
16.92390099789774
 10
-0.0193273789902037
 20
17.21449257471901
 10
-0.019321012909474
 20
17.53921103857813
 10
-0.0193238710869777
 20
17.79684402169792
 10
-0.0204326926187952
 20
18.00791299255594
 10
-0.0299532434319073
 20
18.25441402098478
 10
-0.0540015571670049
 20
18.54352658323594
 10
-0.102250551638014
 20
18.86361919485228
 10
-0.162196625028038
 20
19.11126562419095
 10
-0.2496240029645717
 20
19.34857168765717
 10
-0.3712158951615243
 20
19.55254749039171
 10
-0.5326860151609444
 20
19.69219693967883
  0
LINE
  5
8B
330
1F
100
AcDbEntity
  8
AM_9
100
AcDbLine
 10
-0.0195475505804945
 20
15.80844403842037
 30
0.0
 11
-0.0193500437324505
 21
16.86648683277926
 31
0.0
  0
LINE
  5
8C
330
1F
100
AcDbEntity
  8
AM_9
100
AcDbLine
 10
-0.800000000000093
 20
-18.22738841363508
 30
0.0
 11
-0.5000000000000983
 21
-18.22738841363508
 31
0.0
  0
LINE
  5
8D
330
1F
100
AcDbEntity
  8
AM_9
100
AcDbLine
 10
-0.8000000000000931
 20
-19.49705468103008
 30
0.0
 11
-0.5000000000000984
 21
-19.49705468103008
 31
0.0
  0
LINE
  5
8E
330
1F
100
AcDbEntity
  8
AM_9
100
AcDbLine
 10
-0.800000000000093
 20
-17.85338841363515
 30
0.0
 11
-0.5000000000000983
 21
-17.85338841363514
 31
0.0
  0
LINE
  5
8F
330
1F
100
AcDbEntity
  8
AM_9
100
AcDbLine
 10
-0.800000000000093
 20
-18.23220215722718
 30
0.0
 11
-0.5000000000000983
 21
-18.23220215722718
 31
0.0
  0
LINE
  5
90
330
1F
100
AcDbEntity
  8
AM_9
100
AcDbLine
 10
-5.300000000000444
 20
-3.836139691470411
 30
0.0
 11
-4.500000000000421
 21
-3.133642842560389
 31
0.0
  0
LINE
  5
91
330
1F
100
AcDbEntity
  8
AM_9
100
AcDbLine
 10
-7.500000000000424
 20
-3.84724026254317
 30
0.0
 11
-5.300000000000444
 21
-3.836139691470411
 31
0.0
  0
LINE
  5
92
330
1F
100
AcDbEntity
  8
AM_9
100
AcDbLine
 10
-7.500000000000424
 20
-3.083456492680062
 30
0.0
 11
-4.500000000000421
 21
-3.083456492680297
 31
0.0
  0
LINE
  5
93
330
1F
100
AcDbEntity
  8
AM_9
100
AcDbLine
 10
-7.500000000000424
 20
4.231811462647533
 30
0.0
 11
-4.500000000000421
 21
4.231811462647353
 31
0.0
  0
LINE
  5
94
330
1F
100
AcDbEntity
  8
AM_9
100
AcDbLine
 10
-4.500000000000421
 20
4.284929209285318
 30
0.0
 11
-5.300000000000444
 21
5.029764696366748
 31
0.0
  0
LINE
  5
95
330
1F
100
AcDbEntity
  8
AM_9
100
AcDbLine
 10
-5.300000000000444
 20
5.029764696366748
 30
0.0
 11
-7.500000000000424
 21
5.041551835135105
 31
0.0
  0
LINE
  5
96
330
1F
100
AcDbEntity
  8
AM_9
100
AcDbLine
 10
-0.8000000000000929
 20
-19.49051890240357
 30
0.0
 11
-0.5000000000000981
 21
-19.49051890240357
 31
0.0
  0
LINE
  5
97
330
1F
100
AcDbEntity
  8
AM_9
100
AcDbLine
 10
-0.8000000000000789
 20
-19.07511291371058
 30
0.0
 11
-0.5000000000000842
 21
-19.07511291371058
 31
0.0
  0
LINE
  5
98
330
1F
100
AcDbEntity
  8
AM_9
100
AcDbLine
 10
-5.300000000000443
 20
-9.560534451735755
 30
0.0
 11
-5.300000000000444
 21
-3.836139691470577
 31
0.0
  0
LINE
  5
99
330
1F
100
AcDbEntity
  8
AM_9
100
AcDbLine
 10
-0.5000000000000842
 20
-17.11953505863888
 30
0.0
 11
-0.5000000000000703
 21
-16.70243939747589
 31
0.0
  0
LINE
  5
9A
330
1F
100
AcDbEntity
  8
AM_9
100
AcDbLine
 10
-0.800000000000065
 20
-16.70243939747589
 30
0.0
 11
-0.5000000000000703
 21
-16.70243939747589
 31
0.0
  0
LINE
  5
9B
330
1F
100
AcDbEntity
  8
AM_9
100
AcDbLine
 10
-0.8000000000000789
 20
-17.11953505863886
 30
0.0
 11
-0.5000000000000842
 21
-17.11953505863886
 31
0.0
  0
LINE
  5
9C
330
1F
100
AcDbEntity
  8
AM_9
100
AcDbLine
 10
-0.800000000000079
 20
-19.47382960186658
 30
0.0
 11
-0.5000000000000843
 21
-19.47382960186658
 31
0.0
  0
LINE
  5
9D
330
1F
100
AcDbEntity
  8
AM_9
100
AcDbLine
 10
-0.8000000000000789
 20
-19.01747283802759
 30
0.0
 11
-0.5000000000000842
 21
-19.01747283802759
 31
0.0
  0
LINE
  5
9E
330
1F
100
AcDbEntity
  8
AM_9
100
AcDbLine
 10
-0.8000000000000789
 20
-18.92619428501857
 30
0.0
 11
-0.5000000000000842
 21
-18.92619428501857
 31
0.0
  0
LINE
  5
9F
330
1F
100
AcDbEntity
  8
AM_9
100
AcDbLine
 10
-0.8000000000000789
 20
-19.42376170025558
 30
0.0
 11
-0.5000000000000842
 21
-19.42376170025558
 31
0.0
  0
LINE
  5
A0
330
1F
100
AcDbEntity
  8
AM_9
100
AcDbLine
 10
-0.8000000000000789
 20
-18.79833898411458
 30
0.0
 11
-0.5000000000000842
 21
-18.79833898411458
 31
0.0
  0
LINE
  5
A1
330
1F
100
AcDbEntity
  8
AM_9
100
AcDbLine
 10
-0.8000000000000789
 20
-19.34031472073257
 30
0.0
 11
-0.5000000000000842
 21
-19.34031472073257
 31
0.0
  0
LINE
  5
A2
330
1F
100
AcDbEntity
  8
AM_9
100
AcDbLine
 10
-0.8000000000000789
 20
-18.50380859242157
 30
0.0
 11
-0.5000000000000842
 21
-18.50380859242157
 31
0.0
  0
LINE
  5
A3
330
1F
100
AcDbEntity
  8
AM_9
100
AcDbLine
 10
-0.8000000000000789
 20
-19.22145495281958
 30
0.0
 11
-0.5000000000000842
 21
-19.22145495281958
 31
0.0
  0
LINE
  5
A4
330
1F
100
AcDbEntity
  8
AM_9
100
AcDbLine
 10
-0.8000000000000789
 20
-18.13008174763457
 30
0.0
 11
-0.5000000000000842
 21
-18.13008174763457
 31
0.0
  0
LINE
  5
A5
330
1F
100
AcDbEntity
  8
AM_9
100
AcDbLine
 10
-0.8000000000000789
 20
-19.05497536526457
 30
0.0
 11
-0.5000000000000842
 21
-19.05497536526457
 31
0.0
  0
LINE
  5
A6
330
1F
100
AcDbEntity
  8
AM_9
100
AcDbLine
 10
-0.8000000000000789
 20
-17.93519077168157
 30
0.0
 11
-0.5000000000000842
 21
-17.93519077168157
 31
0.0
  0
LINE
  5
A7
330
1F
100
AcDbEntity
  8
AM_9
100
AcDbLine
 10
-0.8000000000000789
 20
-17.77746019230558
 30
0.0
 11
-0.5000000000000842
 21
-17.77746019230558
 31
0.0
  0
LINE
  5
A8
330
1F
100
AcDbEntity
  8
AM_9
100
AcDbLine
 10
-5.300000000000444
 20
-7.404521647478498
 30
0.0
 11
-7.500000000000424
 21
-7.408181007398748
 31
0.0
  0
LINE
  5
A9
330
1F
100
AcDbEntity
  8
AM_9
100
AcDbLine
 10
-4.50000000000042
 20
-7.172939975132866
 30
0.0
 11
-5.300000000000444
 21
-7.404521647478498
 31
0.0
  0
LINE
  5
AA
330
1F
100
AcDbEntity
  8
AM_9
100
AcDbLine
 10
-0.8000000000000789
 20
-17.65689096317957
 30
0.0
 11
-0.5000000000000842
 21
-17.65689096317957
 31
0.0
  0
LINE
  5
AB
330
1F
100
AcDbEntity
  8
AM_9
100
AcDbLine
 10
-0.8000000000000789
 20
-18.83884153233258
 30
0.0
 11
-0.5000000000000842
 21
-18.83884153233258
 31
0.0
  0
LINE
  5
AC
330
1F
100
AcDbEntity
  8
AM_9
100
AcDbLine
 10
-0.8000000000000789
 20
-18.16843376026858
 30
0.0
 11
-0.5000000000000842
 21
-18.16843376026858
 31
0.0
  0
LINE
  5
AD
330
1F
100
AcDbEntity
  8
AM_9
100
AcDbLine
 10
-0.8000000000000789
 20
-17.57189950810158
 30
0.0
 11
-0.5000000000000842
 21
-17.57189950810158
 31
0.0
  0
LINE
  5
AE
330
1F
100
AcDbEntity
  8
AM_9
100
AcDbLine
 10
-0.8000000000000789
 20
-18.04839858875958
 30
0.0
 11
-0.5000000000000842
 21
-18.04839858875958
 31
0.0
  0
LINE
  5
AF
330
1F
100
AcDbEntity
  8
AM_9
100
AcDbLine
 10
-0.8000000000000789
 20
-17.52090511189157
 30
0.0
 11
-0.5000000000000842
 21
-17.52090511189157
 31
0.0
  0
LINE
  5
B0
330
1F
100
AcDbEntity
  8
AM_9
100
AcDbLine
 10
-0.8000000000000789
 20
-19.04870614872657
 30
0.0
 11
-0.5000000000000842
 21
-19.04870614872657
 31
0.0
  0
LINE
  5
B1
330
1F
100
AcDbEntity
  8
AM_9
100
AcDbLine
 10
-0.8000000000000789
 20
-17.96535405979859
 30
0.0
 11
-0.5000000000000842
 21
-17.96535405979859
 31
0.0
  0
LINE
  5
B2
330
1F
100
AcDbEntity
  8
AM_9
100
AcDbLine
 10
-8.600000000000414
 20
-4.781409313697041
 30
0.0
 11
-7.300000000000445
 21
-4.781409313697027
 31
0.0
  0
LINE
  5
B3
330
1F
100
AcDbEntity
  8
AM_9
100
AcDbLine
 10
-8.600000000000414
 20
1.233843499655815
 30
0.0
 11
-7.300000000000446
 21
1.233843499655787
 31
0.0
  0
LWPOLYLINE
  5
B4
330
1F
100
AcDbEntity
  8
AM_9
100
AcDbPolyline
 90
        8
 70
     0
 43
0.0
 10
-8.900000000000436
 20
1.477383665003953
 10
-8.899984502206332
 20
1.47490197525163
 10
-8.879145175447633
 20
1.388021637144271
 10
-8.83052307192303
 20
1.321383029314518
 10
-8.766106110125238
 20
1.274493448813266
 10
-8.691881464551104
 20
1.24551793776112
 10
-8.608373844933986
 20
1.233938144373378
 10
-8.600000000000414
 20
1.233843499655815
  0
LINE
  5
B5
330
1F
100
AcDbEntity
  8
AM_9
100
AcDbLine
 10
-7.500000000000076
 20
-7.904016549437273
 30
0.0
 11
-9.500000000000078
 21
-7.904016549437273
 31
0.0
  0
LINE
  5
B6
330
1F
100
AcDbEntity
  8
AM_9
100
AcDbLine
 10
-0.8000000000000789
 20
-17.89937553272958
 30
0.0
 11
-0.5000000000000842
 21
-17.89937553272958
 31
0.0
  0
LINE
  5
B7
330
1F
100
AcDbEntity
  8
AM_9
100
AcDbLine
 10
-0.8000000000000789
 20
-17.91587028370559
 30
0.0
 11
-0.5000000000000842
 21
-17.91587028370559
 31
0.0
  0
LINE
  5
B8
330
1F
100
AcDbEntity
  8
AM_9
100
AcDbLine
 10
-0.8000000000000789
 20
-19.03629073963857
 30
0.0
 11
-0.5000000000000842
 21
-19.03629073963857
 31
0.0
  0
LINE
  5
B9
330
1F
100
AcDbEntity
  8
AM_9
100
AcDbLine
 10
-0.8000000000000789
 20
-19.42872724400256
 30
0.0
 11
-0.5000000000000842
 21
-19.42872724400256
 31
0.0
  0
LINE
  5
BA
330
1F
100
AcDbEntity
  8
AM_9
100
AcDbLine
 10
-0.8000000000000788
 20
-18.99904451237458
 30
0.0
 11
-0.500000000000084
 21
-18.99904451237458
 31
0.0
  0
LINE
  5
BB
330
1F
100
AcDbEntity
  8
AM_9
100
AcDbLine
 10
-0.8000000000000789
 20
-17.50390729771357
 30
0.0
 11
-0.5000000000000842
 21
-17.50390729771357
 31
0.0
  0
LINE
  5
BC
330
1F
100
AcDbEntity
  8
AM_9
100
AcDbLine
 10
-0.8000000000000788
 20
-17.92824611530958
 30
0.0
 11
-0.500000000000084
 21
-17.92824611530958
 31
0.0
  0
LINE
  5
BD
330
1F
100
AcDbEntity
  8
AM_9
100
AcDbLine
 10
-0.8000000000000788
 20
-19.41241488323858
 30
0.0
 11
-0.500000000000084
 21
-19.41241488323858
 31
0.0
  0
LINE
  5
BE
330
1F
100
AcDbEntity
  8
AM_9
100
AcDbLine
 10
-0.8000000000000788
 20
-18.93696651325957
 30
0.0
 11
-0.500000000000084
 21
-18.93696651325957
 31
0.0
  0
LINE
  5
BF
330
1F
100
AcDbEntity
  8
AM_9
100
AcDbLine
 10
-0.8000000000000788
 20
-17.97957143650758
 30
0.0
 11
-0.500000000000084
 21
-17.97957143650758
 31
0.0
  0
LINE
  5
C0
330
1F
100
AcDbEntity
  8
AM_9
100
AcDbLine
 10
-0.8000000000000788
 20
-17.52028331623757
 30
0.0
 11
-0.500000000000084
 21
-17.52028331623757
 31
0.0
  0
LINE
  5
C1
330
1F
100
AcDbEntity
  8
AM_9
100
AcDbLine
 10
-0.8000000000000788
 20
-18.05655917988558
 30
0.0
 11
-0.500000000000084
 21
-18.05655917988558
 31
0.0
  0
LINE
  5
C2
330
1F
100
AcDbEntity
  8
AM_9
100
AcDbLine
 10
-0.8000000000000788
 20
-18.85080776081757
 30
0.0
 11
-0.500000000000084
 21
-18.85080776081757
 31
0.0
  0
LINE
  5
C3
330
1F
100
AcDbEntity
  8
AM_9
100
AcDbLine
 10
-0.8000000000000788
 20
-19.36347756252958
 30
0.0
 11
-0.500000000000084
 21
-19.36347756252958
 31
0.0
  0
LINE
  5
C4
330
1F
100
AcDbEntity
  8
AM_9
100
AcDbLine
 10
-0.8000000000000788
 20
-18.17314348087957
 30
0.0
 11
-0.500000000000084
 21
-18.17314348087957
 31
0.0
  0
LINE
  5
C5
330
1F
100
AcDbEntity
  8
AM_9
100
AcDbLine
 10
-0.8000000000000788
 20
-18.74506578312657
 30
0.0
 11
-0.500000000000084
 21
-18.74506578312657
 31
0.0
  0
LINE
  5
C6
330
1F
100
AcDbEntity
  8
AM_9
100
AcDbLine
 10
-0.8000000000000788
 20
-17.56941041813558
 30
0.0
 11
-0.500000000000084
 21
-17.56941041813558
 31
0.0
  0
LINE
  5
C7
330
1F
100
AcDbEntity
  8
AM_9
100
AcDbLine
 10
-0.8000000000000788
 20
-18.31331786976557
 30
0.0
 11
-0.500000000000084
 21
-18.31331786976557
 31
0.0
  0
LINE
  5
C8
330
1F
100
AcDbEntity
  8
AM_9
100
AcDbLine
 10
-0.8000000000000788
 20
-18.62049064503358
 30
0.0
 11
-0.500000000000084
 21
-18.62049064503358
 31
0.0
  0
LINE
  5
C9
330
1F
100
AcDbEntity
  8
AM_9
100
AcDbLine
 10
-0.8000000000000788
 20
-18.47708234654158
 30
0.0
 11
-0.500000000000084
 21
-18.47708234654158
 31
0.0
  0
LINE
  5
CA
330
1F
100
AcDbEntity
  8
AM_9
100
AcDbLine
 10
-0.8000000000000788
 20
-19.28191552029357
 30
0.0
 11
-0.500000000000084
 21
-19.28191552029357
 31
0.0
  0
LINE
  5
CB
330
1F
100
AcDbEntity
  8
AM_9
100
AcDbLine
 10
-0.8000000000000788
 20
-17.65128955708257
 30
0.0
 11
-0.500000000000084
 21
-17.65128955708257
 31
0.0
  0
LINE
  5
CC
330
1F
100
AcDbEntity
  8
AM_9
100
AcDbLine
 10
-0.8000000000000788
 20
-19.16772851811156
 30
0.0
 11
-0.500000000000084
 21
-19.16772851811156
 31
0.0
  0
LINE
  5
CD
330
1F
100
AcDbEntity
  8
AM_9
100
AcDbLine
 10
-0.8000000000000788
 20
-17.76591977940258
 30
0.0
 11
-0.500000000000084
 21
-17.76591977940258
 31
0.0
  0
LINE
  5
CE
330
1F
100
AcDbEntity
  8
AM_9
100
AcDbLine
 10
-6.700000000000067
 20
9.656183252198622
 30
0.0
 11
-6.700000000000068
 21
6.95276086611446
 31
0.0
  0
LINE
  5
CF
330
1F
100
AcDbEntity
  8
AM_9
100
AcDbLine
 10
-0.8000000000000788
 20
-19.02563247547857
 30
0.0
 11
-0.500000000000084
 21
-19.02563247547857
 31
0.0
  0
LINE
  5
D0
330
1F
100
AcDbEntity
  8
AM_9
100
AcDbLine
 10
-0.8000000000000788
 20
-17.90756616459557
 30
0.0
 11
-0.500000000000084
 21
-17.90756616459557
 31
0.0
  0
LINE
  5
D1
330
1F
100
AcDbEntity
  8
AM_9
100
AcDbLine
 10
-0.8000000000000788
 20
-18.86034355030757
 30
0.0
 11
-0.500000000000084
 21
-18.86034355030757
 31
0.0
  0
LINE
  5
D2
330
1F
100
AcDbEntity
  8
AM_9
100
AcDbLine
 10
-0.8000000000000788
 20
-18.07049236164758
 30
0.0
 11
-0.500000000000084
 21
-18.07049236164758
 31
0.0
  0
LINE
  5
D3
330
1F
100
AcDbEntity
  8
AM_9
100
AcDbLine
 10
-0.8000000000000788
 20
-18.25469932423358
 30
0.0
 11
-0.500000000000084
 21
-18.25469932423358
 31
0.0
  0
LINE
  5
D4
330
1F
100
AcDbEntity
  8
AM_9
100
AcDbLine
 10
-0.5000000000000984
 20
-19.49705468103012
 30
0.0
 11
-0.5000000000000984
 21
-17.43938218042007
 31
0.0
  0
LINE
  5
D5
330
1F
100
AcDbEntity
  8
AM_9
100
AcDbLine
 10
-0.8000000000000788
 20
-18.46018657551458
 30
0.0
 11
-0.500000000000084
 21
-18.46018657551458
 31
0.0
  0
LINE
  5
D6
330
1F
100
AcDbEntity
  8
AM_9
100
AcDbLine
 10
-0.8000000000000788
 20
-18.67186174259858
 30
0.0
 11
-0.500000000000084
 21
-18.67186174259858
 31
0.0
  0
LINE
  5
D7
330
1F
100
AcDbEntity
  8
AM_9
100
AcDbLine
 10
-5.300000000000415
 20
3.836139691473908
 30
0.0
 11
-5.300000000000443
 21
9.560534451739128
 31
0.0
  0
LWPOLYLINE
  5
D8
330
1F
100
AcDbEntity
  8
AM_9
100
AcDbPolyline
 90
        8
 70
     0
 43
0.0
 10
-8.900000000000436
 20
-5.119990388350662
 10
-8.89998450220636
 20
-5.1165551382822
 10
-8.878543306944847
 20
-4.994391520147398
 10
-8.829586982192383
 20
-4.902195194006739
 10
-8.764981102339641
 20
-4.837292622838704
 10
-8.690615128524481
 20
-4.797252083556344
 10
-8.606941131708624
 20
-4.781500121753476
 10
-8.600000000000414
 20
-4.781409313697041
  0
LINE
  5
D9
330
1F
100
AcDbEntity
  8
AM_9
100
AcDbLine
 10
-8.600000000000414
 20
1.568454259230329
 30
0.0
 11
-7.300000000000445
 21
1.568454259230329
 31
0.0
  0
LINE
  5
DA
330
1F
100
AcDbEntity
  8
AM_9
100
AcDbLine
 10
-8.600000000000414
 20
4.610015534217041
 30
0.0
 11
-7.300000000000445
 21
4.610015534217041
 31
0.0
  0
LWPOLYLINE
  5
DB
330
1F
100
AcDbEntity
  8
AM_9
100
AcDbPolyline
 90
        7
 70
     0
 43
0.0
 10
-8.900000000000436
 20
1.816113034724051
 10
-8.899983004129586
 20
1.813470170958106
 10
-8.869388356887747
 20
1.706966109692634
 10
-8.795868512573524
 20
1.628404936871428
 10
-8.715973766694225
 20
1.587661379632552
 10
-8.620604550677147
 20
1.569037535393544
 10
-8.600000000000414
 20
1.568454259230329
  0
LWPOLYLINE
  5
DC
330
1F
100
AcDbEntity
  8
AM_9
100
AcDbPolyline
 90
        7
 70
     0
 43
0.0
 10
-8.600000000000414
 20
4.610015534217041
 10
-8.690333240819998
 20
4.614047767091803
 10
-8.770298686597261
 20
4.625317580835106
 10
-8.83592401416336
 20
4.642935265608092
 10
-8.882745399809183
 20
4.666917383978411
 10
-8.899981249348404
 20
4.693821529571165
 10
-8.900000000000436
 20
4.694744534477338
  0
LINE
  5
DD
330
1F
100
AcDbEntity
  8
AM_9
100
AcDbLine
 10
-5.300000000000443
 20
9.560534451739114
 30
0.0
 11
-4.50000000000042
 21
9.03914193547374
 31
0.0
  0
LINE
  5
DE
330
1F
100
AcDbEntity
  8
AM_9
100
AcDbLine
 10
-7.500000000000423
 20
9.568785570339841
 30
0.0
 11
-5.300000000000443
 21
9.560534451739114
 31
0.0
  0
LINE
  5
E0
330
1F
100
AcDbEntity
  8
AM_0
100
AcDbLine
 10
-0.0000000000000493
 20
16.75365157683713
 30
0.0
 11
-0.0000000000000418
 21
18.80832980981331
 31
0.0
  0
LINE
  5
E1
330
1F
100
AcDbEntity
  8
AM_9
100
AcDbLine
 10
-0.0000000000000453
 20
16.30000000000213
 30
0.0
 11
-0.0000000000000493
 21
16.75365157683713
 31
0.0
  0
ARC
  5
E2
330
1F
100
AcDbEntity
  8
AM_0
100
AcDbCircle
 10
-0.9999999999959924
 20
18.80832980981677
 30
0.0
 40
0.9999999999959506
100
AcDbArc
 50
359.9999999998017
 51
80.87165214512167
  0
LINE
  5
E3
330
1F
100
AcDbEntity
  8
AM_9
100
AcDbLine
 10
-0.8000000000000788
 20
-19.69719921505797
 30
0.0
 11
-0.8000000000000648
 21
-16.29999999999797
 31
0.0
  0
LINE
  5
E4
330
1F
100
AcDbEntity
  8
AM_0
100
AcDbLine
 10
-0.8000000000000786
 20
-19.78812570692248
 30
0.0
 11
-0.8000000000000788
 21
-19.69719921505797
 31
0.0
  0
LINE
  5
E5
330
1F
100
AcDbEntity
  8
AM_9
100
AcDbLine
 10
-0.8000000000000648
 20
-16.29999999999797
 30
0.0
 11
-0.0000000000000696
 21
-16.29999999999797
 31
0.0
  0
LINE
  5
E6
330
1F
100
AcDbEntity
  8
AM_9
100
AcDbLine
 10
-8.600000000000414
 20
-4.446798554122472
 30
0.0
 11
-7.300000000000445
 21
-4.446798554122458
 31
0.0
  0
LWPOLYLINE
  5
E7
330
1F
100
AcDbEntity
  8
AM_9
100
AcDbPolyline
 90
        7
 70
     0
 43
0.0
 10
-8.900000000000436
 20
-4.781261018630537
 10
-8.899983004129586
 20
-4.777707568990763
 10
-8.869388356887747
 20
-4.634231139829955
 10
-8.795868512573524
 20
-4.52804232017652
 10
-8.715973766694225
 20
-4.472847748947004
 10
-8.620604550677147
 20
-4.4475898905217
 10
-8.600000000000414
 20
-4.446798554122472
  0
LINE
  5
E8
330
1F
100
AcDbEntity
  8
AM_9
100
AcDbLine
 10
-8.600000000000414
 20
-6.354555622365352
 30
0.0
 11
-7.300000000000445
 21
-6.354555622365324
 31
0.0
  0
LWPOLYLINE
  5
E9
330
1F
100
AcDbEntity
  8
AM_9
100
AcDbPolyline
 90
        7
 70
     0
 43
0.0
 10
-8.900000000000436
 20
-6.584662963304969
 10
-8.899981249348377
 20
-6.582114576274986
 10
-8.877757800814678
 20
-6.498234634457714
 10
-8.81414628869906
 20
-6.423982542877724
 10
-8.721856071885997
 20
-6.37457077137775
 10
-8.623643234946577
 20
-6.355278357049881
 10
-8.600000000000414
 20
-6.354555622365352
  0
LINE
  5
EA
330
1F
100
AcDbEntity
  8
AM_9
100
AcDbLine
 10
-6.700000000000068
 20
6.952760866114419
 30
0.0
 11
-9.500000000000064
 21
6.952760866114419
 31
0.0
  0
LINE
  5
EB
330
1F
100
AcDbEntity
  8
AM_9
100
AcDbLine
 10
-6.700000000000067
 20
8.48868844104593
 30
0.0
 11
-7.500000000000062
 21
8.48868844104593
 31
0.0
  0
LINE
  5
EC
330
1F
100
AcDbEntity
  8
AM_9
100
AcDbLine
 10
-9.500000000000064
 20
9.98898284309982
 30
0.0
 11
-7.500000000000062
 21
9.98898284309982
 31
0.0
  0
LINE
  5
ED
330
1F
100
AcDbEntity
  8
AM_9
100
AcDbLine
 10
4.000000000001891
 20
2.000000000000737
 30
0.0
 11
4.000000000001891
 21
12.00000000000075
 31
0.0
  0
LINE
  5
EE
330
1F
100
AcDbEntity
  8
AM_9
100
AcDbLine
 10
22.00000000000188
 20
2.000000000000723
 30
0.0
 11
4.000000000001891
 21
2.000000000000737
 31
0.0
  0
LINE
  5
EF
330
1F
100
AcDbEntity
  8
AM_9
100
AcDbLine
 10
22.00000000000188
 20
12.00000000000073
 30
0.0
 11
22.00000000000188
 21
2.000000000000723
 31
0.0
  0
LINE
  5
F0
330
1F
100
AcDbEntity
  8
AM_9
100
AcDbLine
 10
4.000000000001891
 20
12.00000000000075
 30
0.0
 11
22.00000000000188
 21
12.00000000000073
 31
0.0
  0
LINE
  5
F1
330
1F
100
AcDbEntity
  8
AM_9
100
AcDbLine
 10
4.000000000001863
 20
-1.999999999999238
 30
0.0
 11
4.000000000001863
 21
-11.99999999999925
 31
0.0
  0
LINE
  5
F2
330
1F
100
AcDbEntity
  8
AM_9
100
AcDbLine
 10
4.000000000001863
 20
-11.99999999999925
 30
0.0
 11
22.00000000000185
 21
-11.99999999999926
 31
0.0
  0
LINE
  5
F3
330
1F
100
AcDbEntity
  8
AM_9
100
AcDbLine
 10
22.00000000000185
 20
-11.99999999999926
 30
0.0
 11
22.00000000000185
 21
-1.999999999999252
 31
0.0
  0
LINE
  5
F4
330
1F
100
AcDbEntity
  8
AM_9
100
AcDbLine
 10
22.00000000000185
 20
-1.999999999999252
 30
0.0
 11
4.000000000001863
 21
-1.999999999999238
 31
0.0
  0
LINE
  5
F5
330
1F
100
AcDbEntity
  8
AM_9
100
AcDbLine
 10
-11.00000000000006
 20
12.57187816734891
 30
0.0
 11
-10.98935157691114
 21
12.55918787087723
 31
0.0
  0
LINE
  5
F6
330
1F
100
AcDbEntity
  8
AM_9
100
AcDbLine
 10
-10.98935157691121
 20
-12.55918787087315
 30
0.0
 11
-11.00000000000006
 21
-12.57187816734476
 31
0.0
  0
LINE
  5
F7
330
1F
100
AcDbEntity
  8
AM_9
100
AcDbLine
 10
-10.98935157691124
 20
12.55918787087721
 30
0.0
 11
-10.83137923945731
 21
12.99321330093034
 31
0.0
  0
LINE
  5
F8
330
1F
100
AcDbEntity
  8
AM_9
100
AcDbLine
 10
-10.98935157691121
 20
12.55918787087731
 30
0.0
 11
-11.00000000000005
 21
12.61957807914787
 31
0.0
  0
LINE
  5
F9
330
1F
100
AcDbEntity
  8
AM_9
100
AcDbLine
 10
-10.83137923945732
 20
-12.99321330092619
 30
0.0
 11
-10.98935157691122
 21
-12.55918787087315
 31
0.0
  0
LINE
  5
FA
330
1F
100
AcDbEntity
  8
AM_9
100
AcDbLine
 10
-10.98935157691121
 20
-12.55918787087316
 30
0.0
 11
-10.99999999999977
 21
-12.61957807914288
 31
0.0
  0
LINE
  5
FB
330
1F
100
AcDbEntity
  8
AM_9
100
AcDbLine
 10
-9.500000000000078
 20
-9.988982843095782
 30
0.0
 11
-7.500000000000076
 21
-9.988982843095782
 31
0.0
  0
LINE
  5
FC
330
1F
100
AcDbEntity
  8
AM_9
100
AcDbLine
 10
-7.016358635273144
 20
16.91526952344114
 30
0.0
 11
-7.250860845340136
 21
16.87392045677057
 31
0.0
  0
LINE
  5
FD
330
1F
100
AcDbEntity
  8
AM_9
100
AcDbLine
 10
-6.695186676805963
 20
13.7225356471315
 30
0.0
 11
-6.46068446673897
 21
13.76388471380208
 31
0.0
  0
LINE
  5
FE
330
1F
100
AcDbEntity
  8
AM_9
100
AcDbLine
 10
-7.705724062382135
 20
16.79371579907421
 30
0.0
 11
-7.940226272449143
 21
16.75236673240364
 31
0.0
  0
LINE
  5
FF
330
1F
100
AcDbEntity
  8
AM_9
100
AcDbLine
 10
-7.384552103914968
 20
13.60098192276457
 30
0.0
 11
-7.150049893847962
 21
13.64233098943515
 31
0.0
  0
LINE
  5
100
330
1F
100
AcDbEntity
  8
AM_9
100
AcDbLine
 10
-7.250860845340155
 20
-16.87392045676643
 30
0.0
 11
-7.01635863527316
 21
-16.91526952343701
 31
0.0
  0
LINE
  5
101
330
1F
100
AcDbEntity
  8
AM_9
100
AcDbLine
 10
-6.460684466738978
 20
-13.76388471379795
 30
0.0
 11
-6.695186676805972
 21
-13.72253564712737
 31
0.0
  0
LINE
  5
102
330
1F
100
AcDbEntity
  8
AM_9
100
AcDbLine
 10
-7.940226272449162
 20
-16.7523667323995
 30
0.0
 11
-7.705724062382155
 21
-16.79371579907008
 31
0.0
  0
LINE
  5
103
330
1F
100
AcDbEntity
  8
AM_9
100
AcDbLine
 10
-7.150049893847973
 20
-13.64233098943101
 30
0.0
 11
-7.38455210391498
 21
-13.60098192276044
 31
0.0
  0
LINE
  5
104
330
1F
100
AcDbEntity
  8
AM_9
100
AcDbLine
 10
-8.395089489490159
 20
16.67216207470745
 30
0.0
 11
-8.629591699557169
 21
16.63081300803688
 31
0.0
  0
LINE
  5
105
330
1F
100
AcDbEntity
  8
AM_9
100
AcDbLine
 10
-8.073917531022994
 20
13.47942819839781
 30
0.0
 11
-7.839415320955984
 21
13.52077726506839
 31
0.0
  0
LINE
  5
106
330
1F
100
AcDbEntity
  8
AM_9
100
AcDbLine
 10
-8.629591699557166
 20
-16.63081300803274
 30
0.0
 11
-8.395089489490159
 21
-16.67216207470332
 31
0.0
  0
LINE
  5
107
330
1F
100
AcDbEntity
  8
AM_9
100
AcDbLine
 10
-7.839415320955978
 20
-13.52077726506426
 30
0.0
 11
-8.073917531022984
 21
-13.47942819839368
 31
0.0
  0
LINE
  5
108
330
1F
100
AcDbEntity
  8
AM_9
100
AcDbLine
 10
-9.084454916599137
 20
16.55060835034053
 30
0.0
 11
-9.318957126666145
 21
16.50925928366995
 31
0.0
  0
LINE
  5
109
330
1F
100
AcDbEntity
  8
AM_9
100
AcDbLine
 10
-8.76328295813197
 20
13.35787447403088
 30
0.0
 11
-8.528780748064962
 21
13.39922354070146
 31
0.0
  0
LINE
  5
10A
330
1F
100
AcDbEntity
  8
AM_9
100
AcDbLine
 10
-9.31895712666616
 20
-16.50925928366581
 30
0.0
 11
-9.084454916599153
 21
-16.55060835033639
 31
0.0
  0
LINE
  5
10B
330
1F
100
AcDbEntity
  8
AM_9
100
AcDbLine
 10
-8.528780748064971
 20
-13.39922354069733
 30
0.0
 11
-8.763282958131978
 21
-13.35787447402675
 31
0.0
  0
LINE
  5
10C
330
1F
100
AcDbEntity
  8
AM_9
100
AcDbLine
 10
-9.773820343707147
 20
16.42905462597377
 30
0.0
 11
-10.00832255377514
 21
16.38770555930302
 31
0.0
  0
LINE
  5
10D
330
1F
100
AcDbEntity
  8
AM_9
100
AcDbLine
 10
-9.45264838524096
 20
13.23632074966395
 30
0.0
 11
-9.218146175172972
 21
13.27766981633471
 31
0.0
  0
LINE
  5
10E
330
1F
100
AcDbEntity
  8
AM_9
100
AcDbLine
 10
-10.00832255377514
 20
-16.38770555929888
 30
0.0
 11
-9.77382034370716
 21
-16.42905462596963
 31
0.0
  0
LINE
  5
10F
330
1F
100
AcDbEntity
  8
AM_9
100
AcDbLine
 10
-9.218146175172977
 20
-13.27766981633057
 30
0.0
 11
-9.452648385240957
 21
-13.23632074965982
 31
0.0
  0
LINE
  5
110
330
1F
100
AcDbEntity
  8
AM_9
100
AcDbLine
 10
-10.46318577081615
 20
16.30750090160684
 30
0.0
 11
-10.69768798088315
 21
16.26615183493627
 31
0.0
  0
LINE
  5
111
330
1F
100
AcDbEntity
  8
AM_9
100
AcDbLine
 10
-10.14201381234897
 20
13.1147670252972
 30
0.0
 11
-9.907511602281973
 21
13.15611609196777
 31
0.0
  0
LINE
  5
112
330
1F
100
AcDbEntity
  8
AM_9
100
AcDbLine
 10
-10.69768798088316
 20
-16.26615183493212
 30
0.0
 11
-10.46318577081617
 21
-16.3075009016027
 31
0.0
  0
LINE
  5
113
330
1F
100
AcDbEntity
  8
AM_9
100
AcDbLine
 10
-9.907511602281987
 20
-13.15611609196364
 30
0.0
 11
-10.14201381234898
 21
-13.11476702529306
 31
0.0
  0
LINE
  5
114
330
1F
100
AcDbEntity
  8
AM_9
100
AcDbLine
 10
-10.83137923945779
 20
12.9932133009303
 30
0.0
 11
-10.59687702939017
 21
13.03456236760099
 31
0.0
  0
LINE
  5
115
330
1F
100
AcDbEntity
  8
AM_9
100
AcDbLine
 10
-10.83137923945733
 20
12.99321330093031
 30
0.0
 11
-11.00000000000005
 21
13.94950915460376
 31
0.0
  0
LINE
  5
116
330
1F
100
AcDbEntity
  8
AM_9
100
AcDbLine
 10
-11.00000000000007
 20
-13.94950915459962
 30
0.0
 11
-10.83137923945734
 21
-12.99321330092616
 31
0.0
  0
LINE
  5
117
330
1F
100
AcDbEntity
  8
AM_9
100
AcDbLine
 10
-10.59687702939019
 20
-13.03456236759684
 30
0.0
 11
-10.8313792394578
 21
-12.99321330092616
 31
0.0
  0
LINE
  5
118
330
1F
100
AcDbEntity
  8
AM_9
100
AcDbLine
 10
-8.600000000000385
 20
7.749250910030633
 30
0.0
 11
-7.300000000000417
 21
7.749250910030606
 31
0.0
  0
LINE
  5
119
330
1F
100
AcDbEntity
  8
AM_9
100
AcDbLine
 10
-8.600000000000414
 20
6.004710821878908
 30
0.0
 11
-7.300000000000445
 21
6.004710821878908
 31
0.0
  0
LINE
  5
11A
330
1F
100
AcDbEntity
  8
AM_9
100
AcDbLine
 10
-7.300000000000417
 20
7.950000000001694
 30
0.0
 11
-8.600000000000406
 21
7.950000000001694
 31
0.0
  0
LINE
  5
11B
330
1F
100
AcDbEntity
  8
AM_9
100
AcDbLine
 10
-87.88072080858173
 20
-1.981199999998685
 30
0.0
 11
-55.36872080858068
 21
-1.981199999998687
 31
0.0
  0
LINE
  5
11C
330
1F
100
AcDbEntity
  8
AM_9
100
AcDbLine
 10
-55.36872080858068
 20
1.981200000001794
 30
0.0
 11
-87.88072080858173
 21
1.981200000001795
 31
0.0
  0
LINE
  5
11D
330
1F
100
AcDbEntity
  8
AM_9
100
AcDbLine
 10
-87.88072080858173
 20
1.981200000001724
 30
0.0
 11
-87.88072080858173
 21
-1.981199999998615
 31
0.0
  0
LINE
  5
11E
330
1F
100
AcDbEntity
  8
AM_9
100
AcDbLine
 10
-2.527552351280768
 20
14.6756173978297
 30
0.0
 11
-2.07760102450019
 21
14.1393862876464
 31
0.0
  0
LINE
  5
11F
330
1F
100
AcDbEntity
  8
AM_9
100
AcDbLine
 10
-2.772193735167907
 20
18.07861729969524
 30
0.0
 11
-3.011607835495876
 21
17.4208324651451
 31
0.0
  0
LINE
  5
120
330
1F
100
AcDbEntity
  8
AM_9
100
AcDbLine
 10
-3.011607835495893
 20
-17.42083246514095
 30
0.0
 11
-2.772193735167924
 21
-18.07861729969109
 31
0.0
  0
LINE
  5
121
330
1F
100
AcDbEntity
  8
AM_9
100
AcDbLine
 10
-2.077601024500201
 20
-14.13938628764226
 30
0.0
 11
-2.527552351280778
 21
-14.67561739782554
 31
0.0
  0
LINE
  5
122
330
1F
100
AcDbEntity
  8
AM_9
100
AcDbLine
 10
-2.527552351280501
 20
14.67561739782973
 30
0.0
 11
-3.011607835495609
 21
17.42083246514513
 31
0.0
  0
LINE
  5
123
330
1F
100
AcDbEntity
  8
AM_9
100
AcDbLine
 10
-3.01160783549634
 20
17.42083246514505
 30
0.0
 11
-3.461559162276919
 21
17.95706357532834
 31
0.0
  0
LINE
  5
124
330
1F
100
AcDbEntity
  8
AM_9
100
AcDbLine
 10
-2.766966451609202
 20
14.01783256327951
 30
0.0
 11
-2.527552351281234
 21
14.67561739782965
 31
0.0
  0
LINE
  5
125
330
1F
100
AcDbEntity
  8
AM_9
100
AcDbLine
 10
-2.527552351280513
 20
-14.67561739782556
 30
0.0
 11
-3.011607835495625
 21
-17.42083246514097
 31
0.0
  0
LINE
  5
126
330
1F
100
AcDbEntity
  8
AM_9
100
AcDbLine
 10
-2.527552351281245
 20
-14.67561739782549
 30
0.0
 11
-2.766966451609213
 21
-14.01783256327534
 31
0.0
  0
LINE
  5
127
330
1F
100
AcDbEntity
  8
AM_9
100
AcDbLine
 10
-3.461559162276936
 20
-17.95706357532418
 30
0.0
 11
-3.011607835496358
 21
-17.42083246514089
 31
0.0
  0
LINE
  5
128
330
1F
100
AcDbEntity
  8
AM_9
100
AcDbLine
 10
-3.461559162276936
 20
-17.95706357532418
 30
0.0
 11
-2.766966451609213
 21
-14.01783256327534
 31
0.0
  0
LINE
  5
129
330
1F
100
AcDbEntity
  8
AM_9
100
AcDbLine
 10
-3.700973262604905
 20
-17.29927874077404
 30
0.0
 11
-3.461559162276936
 21
-17.95706357532418
 31
0.0
  0
LINE
  5
12A
330
1F
100
AcDbEntity
  8
AM_9
100
AcDbLine
 10
-2.766966451609213
 20
-14.01783256327534
 30
0.0
 11
-3.21691777838979
 21
-14.55406367345863
 31
0.0
  0
LINE
  5
12B
330
1F
100
AcDbEntity
  8
AM_9
100
AcDbLine
 10
-3.461559162276919
 20
17.95706357532834
 30
0.0
 11
-2.766966451609202
 21
14.01783256327951
 31
0.0
  0
LINE
  5
12C
330
1F
100
AcDbEntity
  8
AM_9
100
AcDbLine
 10
-3.21691777838978
 20
14.5540636734628
 30
0.0
 11
-2.766966451609202
 21
14.01783256327951
 31
0.0
  0
LINE
  5
12D
330
1F
100
AcDbEntity
  8
AM_9
100
AcDbLine
 10
-3.461559162276919
 20
17.95706357532834
 30
0.0
 11
-3.700973262604888
 21
17.2992787407782
 31
0.0
  0
LINE
  5
12E
330
1F
100
AcDbEntity
  8
AM_9
100
AcDbLine
 10
-3.216917778389511
 20
-14.55406367345878
 30
0.0
 11
-3.700973262604623
 21
-17.29927874077418
 31
0.0
  0
LINE
  5
12F
330
1F
100
AcDbEntity
  8
AM_9
100
AcDbLine
 10
-3.216917778389244
 20
-14.5540636734587
 30
0.0
 11
-3.456331878717212
 21
-13.89627883890856
 31
0.0
  0
LINE
  5
130
330
1F
100
AcDbEntity
  8
AM_9
100
AcDbLine
 10
-4.150924589384935
 20
-17.83550985095739
 30
0.0
 11
-3.700973262604357
 21
-17.29927874077411
 31
0.0
  0
LINE
  5
131
330
1F
100
AcDbEntity
  8
AM_9
100
AcDbLine
 10
-4.150924589384935
 20
-17.83550985095739
 30
0.0
 11
-3.456331878717212
 21
-13.89627883890856
 31
0.0
  0
LINE
  5
132
330
1F
100
AcDbEntity
  8
AM_9
100
AcDbLine
 10
-4.390338689712904
 20
-17.17772501640725
 30
0.0
 11
-4.150924589384935
 21
-17.83550985095739
 31
0.0
  0
LINE
  5
133
330
1F
100
AcDbEntity
  8
AM_9
100
AcDbLine
 10
-3.456331878717212
 20
-13.89627883890856
 30
0.0
 11
-3.906283205497789
 21
-14.43250994909185
 31
0.0
  0
LINE
  5
134
330
1F
100
AcDbEntity
  8
AM_9
100
AcDbLine
 10
-3.906283205497779
 20
14.432509949096
 30
0.0
 11
-3.456331878717201
 21
13.89627883891271
 31
0.0
  0
LINE
  5
135
330
1F
100
AcDbEntity
  8
AM_9
100
AcDbLine
 10
-4.150924589384918
 20
17.83550985096154
 30
0.0
 11
-4.390338689712887
 21
17.1777250164114
 31
0.0
  0
LINE
  5
136
330
1F
100
AcDbEntity
  8
AM_9
100
AcDbLine
 10
-3.216917778389499
 20
14.55406367346283
 30
0.0
 11
-3.700973262604607
 21
17.29927874077823
 31
0.0
  0
LINE
  5
137
330
1F
100
AcDbEntity
  8
AM_9
100
AcDbLine
 10
-4.150924589384918
 20
17.83550985096154
 30
0.0
 11
-3.456331878717201
 21
13.89627883891271
 31
0.0
  0
LINE
  5
138
330
1F
100
AcDbEntity
  8
AM_9
100
AcDbLine
 10
-3.700973262604339
 20
17.29927874077825
 30
0.0
 11
-4.150924589384918
 21
17.83550985096154
 31
0.0
  0
LINE
  5
139
330
1F
100
AcDbEntity
  8
AM_9
100
AcDbLine
 10
-3.456331878717201
 20
13.89627883891271
 30
0.0
 11
-3.216917778389234
 21
14.55406367346285
 31
0.0
  0
LINE
  5
13A
330
1F
100
AcDbEntity
  8
AM_9
100
AcDbLine
 10
-4.595648632606777
 20
14.3109562247292
 30
0.0
 11
-4.1456973058262
 21
13.77472511454591
 31
0.0
  0
LINE
  5
13B
330
1F
100
AcDbEntity
  8
AM_9
100
AcDbLine
 10
-4.840290016493916
 20
17.71395612659474
 30
0.0
 11
-5.079704116821885
 21
17.05617129204461
 31
0.0
  0
LINE
  5
13C
330
1F
100
AcDbEntity
  8
AM_9
100
AcDbLine
 10
-3.90628320549751
 20
-14.43250994909187
 30
0.0
 11
-4.390338689712623
 21
-17.17772501640727
 31
0.0
  0
LINE
  5
13D
330
1F
100
AcDbEntity
  8
AM_9
100
AcDbLine
 10
-3.906283205498243
 20
-14.4325099490919
 30
0.0
 11
-4.14569730582621
 21
-13.77472511454176
 31
0.0
  0
LINE
  5
13E
330
1F
100
AcDbEntity
  8
AM_9
100
AcDbLine
 10
-4.840290016493934
 20
-17.7139561265906
 30
0.0
 11
-4.390338689713356
 21
-17.17772501640731
 31
0.0
  0
LINE
  5
13F
330
1F
100
AcDbEntity
  8
AM_9
100
AcDbLine
 10
-4.840290016493934
 20
-17.7139561265906
 30
0.0
 11
-4.14569730582621
 21
-13.77472511454176
 31
0.0
  0
LINE
  5
140
330
1F
100
AcDbEntity
  8
AM_9
100
AcDbLine
 10
-5.079704116821902
 20
-17.05617129204045
 30
0.0
 11
-4.840290016493934
 21
-17.7139561265906
 31
0.0
  0
LINE
  5
141
330
1F
100
AcDbEntity
  8
AM_9
100
AcDbLine
 10
-4.14569730582621
 20
-13.77472511454176
 30
0.0
 11
-4.595648632606787
 21
-14.31095622472505
 31
0.0
  0
LINE
  5
142
330
1F
100
AcDbEntity
  8
AM_9
100
AcDbLine
 10
-3.906283205497498
 20
14.43250994909602
 30
0.0
 11
-4.390338689712606
 21
17.17772501641142
 31
0.0
  0
LINE
  5
143
330
1F
100
AcDbEntity
  8
AM_9
100
AcDbLine
 10
-4.840290016493916
 20
17.71395612659474
 30
0.0
 11
-4.1456973058262
 21
13.77472511454591
 31
0.0
  0
LINE
  5
144
330
1F
100
AcDbEntity
  8
AM_9
100
AcDbLine
 10
-4.390338689713337
 20
17.17772501641145
 30
0.0
 11
-4.840290016493916
 21
17.71395612659474
 31
0.0
  0
LINE
  5
145
330
1F
100
AcDbEntity
  8
AM_9
100
AcDbLine
 10
-4.1456973058262
 20
13.77472511454591
 30
0.0
 11
-3.906283205498232
 21
14.43250994909605
 31
0.0
  0
LINE
  5
146
330
1F
100
AcDbEntity
  8
AM_9
100
AcDbLine
 10
-4.595648632606508
 20
-14.31095622472497
 30
0.0
 11
-5.07970411682162
 21
-17.05617129204037
 31
0.0
  0
LINE
  5
147
330
1F
100
AcDbEntity
  8
AM_9
100
AcDbLine
 10
-4.595648632606242
 20
-14.31095622472501
 30
0.0
 11
-4.835062732934209
 21
-13.65317139017487
 31
0.0
  0
LINE
  5
148
330
1F
100
AcDbEntity
  8
AM_9
100
AcDbLine
 10
-5.529655443601933
 20
-17.5924024022237
 30
0.0
 11
-5.079704116821354
 21
-17.05617129204041
 31
0.0
  0
LINE
  5
149
330
1F
100
AcDbEntity
  8
AM_9
100
AcDbLine
 10
-4.595648632606497
 20
14.31095622472913
 30
0.0
 11
-5.079704116821604
 21
17.05617129204454
 31
0.0
  0
LINE
  5
14A
330
1F
100
AcDbEntity
  8
AM_9
100
AcDbLine
 10
-5.079704116821336
 20
17.05617129204456
 30
0.0
 11
-5.529655443601915
 21
17.59240240222785
 31
0.0
  0
LINE
  5
14B
330
1F
100
AcDbEntity
  8
AM_9
100
AcDbLine
 10
-4.835062732934198
 20
13.65317139017901
 30
0.0
 11
-4.595648632606231
 21
14.31095622472915
 31
0.0
  0
LINE
  5
14C
330
1F
100
AcDbEntity
  8
AM_9
100
AcDbLine
 10
-5.529655443601915
 20
17.59240240222785
 30
0.0
 11
-4.835062732934198
 21
13.65317139017901
 31
0.0
  0
LINE
  5
14D
330
1F
100
AcDbEntity
  8
AM_9
100
AcDbLine
 10
-5.285014059714776
 20
14.1894025003623
 30
0.0
 11
-4.835062732934198
 21
13.65317139017901
 31
0.0
  0
LINE
  5
14E
330
1F
100
AcDbEntity
  8
AM_9
100
AcDbLine
 10
-5.529655443601915
 20
17.59240240222785
 30
0.0
 11
-5.769069543929883
 21
16.93461756767771
 31
0.0
  0
LINE
  5
14F
330
1F
100
AcDbEntity
  8
AM_9
100
AcDbLine
 10
-5.529655443601933
 20
-17.5924024022237
 30
0.0
 11
-4.835062732934209
 21
-13.65317139017487
 31
0.0
  0
LINE
  5
150
330
1F
100
AcDbEntity
  8
AM_9
100
AcDbLine
 10
-5.7690695439299
 20
-16.93461756767356
 30
0.0
 11
-5.529655443601933
 21
-17.5924024022237
 31
0.0
  0
LINE
  5
151
330
1F
100
AcDbEntity
  8
AM_9
100
AcDbLine
 10
-4.835062732934209
 20
-13.65317139017487
 30
0.0
 11
-5.285014059714787
 21
-14.18940250035815
 31
0.0
  0
LINE
  5
152
330
1F
100
AcDbEntity
  8
AM_9
100
AcDbLine
 10
-5.285014059715508
 20
14.18940250036232
 30
0.0
 11
-5.769069543930617
 21
16.93461756767773
 31
0.0
  0
LINE
  5
153
330
1F
100
AcDbEntity
  8
AM_9
100
AcDbLine
 10
-5.769069543930336
 20
16.93461756767765
 30
0.0
 11
-6.219020870710914
 21
17.47084867786094
 31
0.0
  0
LINE
  5
154
330
1F
100
AcDbEntity
  8
AM_9
100
AcDbLine
 10
-5.524428160043197
 20
13.5316176658121
 30
0.0
 11
-5.285014059715229
 21
14.18940250036224
 31
0.0
  0
LINE
  5
155
330
1F
100
AcDbEntity
  8
AM_9
100
AcDbLine
 10
-6.219020870710914
 20
17.47084867786094
 30
0.0
 11
-5.524428160043197
 21
13.5316176658121
 31
0.0
  0
LINE
  5
156
330
1F
100
AcDbEntity
  8
AM_9
100
AcDbLine
 10
-5.974379486823774
 20
14.06784877599539
 30
0.0
 11
-5.524428160043197
 21
13.5316176658121
 31
0.0
  0
LINE
  5
157
330
1F
100
AcDbEntity
  8
AM_9
100
AcDbLine
 10
-6.219020870710914
 20
17.47084867786094
 30
0.0
 11
-6.458434971038882
 21
16.8130638433108
 31
0.0
  0
LINE
  5
158
330
1F
100
AcDbEntity
  8
AM_9
100
AcDbLine
 10
-6.458434971038898
 20
-16.81306384330665
 30
0.0
 11
-6.21902087071093
 21
-17.47084867785679
 31
0.0
  0
LINE
  5
159
330
1F
100
AcDbEntity
  8
AM_9
100
AcDbLine
 10
-5.524428160043207
 20
-13.53161766580796
 30
0.0
 11
-5.974379486823787
 21
-14.06784877599124
 31
0.0
  0
LINE
  5
15A
330
1F
100
AcDbEntity
  8
AM_9
100
AcDbLine
 10
-5.28501405971552
 20
-14.18940250035817
 30
0.0
 11
-5.769069543930633
 21
-16.93461756767358
 31
0.0
  0
LINE
  5
15B
330
1F
100
AcDbEntity
  8
AM_9
100
AcDbLine
 10
-6.21902087071093
 20
-17.47084867785679
 30
0.0
 11
-5.524428160043207
 21
-13.53161766580796
 31
0.0
  0
LINE
  5
15C
330
1F
100
AcDbEntity
  8
AM_9
100
AcDbLine
 10
-5.28501405971524
 20
-14.18940250035809
 30
0.0
 11
-5.524428160043207
 21
-13.53161766580796
 31
0.0
  0
LINE
  5
15D
330
1F
100
AcDbEntity
  8
AM_9
100
AcDbLine
 10
-6.21902087071093
 20
-17.47084867785679
 30
0.0
 11
-5.769069543930353
 21
-16.9346175676735
 31
0.0
  0
LINE
  5
15E
330
1F
100
AcDbEntity
  8
AM_9
100
AcDbLine
 10
-6.663744913932787
 20
13.94629505162861
 30
0.0
 11
-6.213793587152209
 21
13.41006394144532
 31
0.0
  0
LINE
  5
15F
330
1F
100
AcDbEntity
  8
AM_9
100
AcDbLine
 10
-6.908386297819925
 20
17.34929495349415
 30
0.0
 11
-7.147800398147894
 21
16.69151011894401
 31
0.0
  0
LINE
  5
160
330
1F
100
AcDbEntity
  8
AM_9
100
AcDbLine
 10
-5.974379486824252
 20
-14.06784877599129
 30
0.0
 11
-6.21379358715222
 21
-13.41006394144116
 31
0.0
  0
LINE
  5
161
330
1F
100
AcDbEntity
  8
AM_9
100
AcDbLine
 10
-6.908386297819943
 20
-17.34929495348999
 30
0.0
 11
-6.458434971039365
 21
-16.8130638433067
 31
0.0
  0
LINE
  5
162
330
1F
100
AcDbEntity
  8
AM_9
100
AcDbLine
 10
-6.458434971038631
 20
-16.81306384330668
 30
0.0
 11
-5.97437948682352
 21
-14.06784877599128
 31
0.0
  0
LINE
  5
163
330
1F
100
AcDbEntity
  8
AM_9
100
AcDbLine
 10
-6.908386297819943
 20
-17.34929495348999
 30
0.0
 11
-6.21379358715222
 21
-13.41006394144116
 31
0.0
  0
LINE
  5
164
330
1F
100
AcDbEntity
  8
AM_9
100
AcDbLine
 10
-7.14780039814791
 20
-16.69151011893985
 30
0.0
 11
-6.908386297819943
 21
-17.34929495348999
 31
0.0
  0
LINE
  5
165
330
1F
100
AcDbEntity
  8
AM_9
100
AcDbLine
 10
-6.21379358715222
 20
-13.41006394144116
 30
0.0
 11
-6.663744913932797
 21
-13.94629505162444
 31
0.0
  0
LINE
  5
166
330
1F
100
AcDbEntity
  8
AM_9
100
AcDbLine
 10
-6.908386297819925
 20
17.34929495349415
 30
0.0
 11
-6.213793587152209
 21
13.41006394144532
 31
0.0
  0
LINE
  5
167
330
1F
100
AcDbEntity
  8
AM_9
100
AcDbLine
 10
-6.458434971039349
 20
16.81306384331086
 30
0.0
 11
-6.908386297819925
 21
17.34929495349415
 31
0.0
  0
LINE
  5
168
330
1F
100
AcDbEntity
  8
AM_9
100
AcDbLine
 10
-6.213793587152209
 20
13.41006394144532
 30
0.0
 11
-5.97437948682424
 21
14.06784877599546
 31
0.0
  0
LINE
  5
169
330
1F
100
AcDbEntity
  8
AM_9
100
AcDbLine
 10
-6.458434971038615
 20
16.81306384331082
 30
0.0
 11
-5.974379486823508
 21
14.06784877599541
 31
0.0
  0
LINE
  5
16A
330
1F
100
AcDbEntity
  8
AM_9
100
AcDbLine
 10
-6.663744913932506
 20
13.94629505162853
 30
0.0
 11
-7.147800398147614
 21
16.69151011894393
 31
0.0
  0
LINE
  5
16B
330
1F
100
AcDbEntity
  8
AM_9
100
AcDbLine
 10
-7.147800398147334
 20
16.69151011894396
 30
0.0
 11
-7.597751724927911
 21
17.22774122912724
 31
0.0
  0
LINE
  5
16C
330
1F
100
AcDbEntity
  8
AM_9
100
AcDbLine
 10
-6.903159014260194
 20
13.28851021707841
 30
0.0
 11
-6.663744913932226
 21
13.94629505162855
 31
0.0
  0
LINE
  5
16D
330
1F
100
AcDbEntity
  8
AM_9
100
AcDbLine
 10
-7.837165825255895
 20
-16.56995639457307
 30
0.0
 11
-7.597751724927928
 21
-17.2277412291232
 31
0.0
  0
LINE
  5
16E
330
1F
100
AcDbEntity
  8
AM_9
100
AcDbLine
 10
-6.903159014260205
 20
-13.28851021707437
 30
0.0
 11
-7.353110341040783
 21
-13.82474132725766
 31
0.0
  0
LINE
  5
16F
330
1F
100
AcDbEntity
  8
AM_9
100
AcDbLine
 10
-7.597751724927911
 20
17.22774122912724
 30
0.0
 11
-6.903159014260194
 21
13.28851021707841
 31
0.0
  0
LINE
  5
170
330
1F
100
AcDbEntity
  8
AM_9
100
AcDbLine
 10
-7.353110341040772
 20
13.8247413272617
 30
0.0
 11
-6.903159014260194
 21
13.28851021707841
 31
0.0
  0
LINE
  5
171
330
1F
100
AcDbEntity
  8
AM_9
100
AcDbLine
 10
-7.597751724927911
 20
17.22774122912724
 30
0.0
 11
-7.837165825255879
 21
16.5699563945771
 31
0.0
  0
LINE
  5
172
330
1F
100
AcDbEntity
  8
AM_9
100
AcDbLine
 10
-6.663744913932518
 20
-13.94629505162446
 30
0.0
 11
-7.14780039814763
 21
-16.69151011893987
 31
0.0
  0
LINE
  5
173
330
1F
100
AcDbEntity
  8
AM_9
100
AcDbLine
 10
-7.597751724927928
 20
-17.2277412291232
 30
0.0
 11
-6.903159014260205
 21
-13.28851021707437
 31
0.0
  0
LINE
  5
174
330
1F
100
AcDbEntity
  8
AM_9
100
AcDbLine
 10
-6.663744913932237
 20
-13.94629505162451
 30
0.0
 11
-6.903159014260205
 21
-13.28851021707437
 31
0.0
  0
LINE
  5
175
330
1F
100
AcDbEntity
  8
AM_9
100
AcDbLine
 10
-7.597751724927928
 20
-17.2277412291232
 30
0.0
 11
-7.14780039814735
 21
-16.69151011893992
 31
0.0
  0
LINE
  5
176
330
1F
100
AcDbEntity
  8
AM_9
100
AcDbLine
 10
-7.353110341040505
 20
13.82474132726172
 30
0.0
 11
-7.837165825255614
 21
16.56995639457712
 31
0.0
  0
LINE
  5
177
330
1F
100
AcDbEntity
  8
AM_9
100
AcDbLine
 10
-7.837165825256346
 20
16.56995639457715
 30
0.0
 11
-8.287117152036924
 21
17.10618750476045
 31
0.0
  0
LINE
  5
178
330
1F
100
AcDbEntity
  8
AM_9
100
AcDbLine
 10
-7.592524441369207
 20
13.16695649271161
 30
0.0
 11
-7.353110341041238
 21
13.82474132726175
 31
0.0
  0
LINE
  5
179
330
1F
100
AcDbEntity
  8
AM_9
100
AcDbLine
 10
-8.287117152036924
 20
17.10618750476045
 30
0.0
 11
-7.592524441369207
 21
13.16695649271161
 31
0.0
  0
LINE
  5
17A
330
1F
100
AcDbEntity
  8
AM_9
100
AcDbLine
 10
-8.042475768149783
 20
13.7031876028949
 30
0.0
 11
-7.592524441369207
 21
13.16695649271161
 31
0.0
  0
LINE
  5
17B
330
1F
100
AcDbEntity
  8
AM_9
100
AcDbLine
 10
-8.287117152036924
 20
17.10618750476045
 30
0.0
 11
-8.526531252364892
 21
16.44840267021031
 31
0.0
  0
LINE
  5
17C
330
1F
100
AcDbEntity
  8
AM_9
100
AcDbLine
 10
-8.526531252364908
 20
-16.44840267020616
 30
0.0
 11
-8.28711715203694
 21
-17.1061875047563
 31
0.0
  0
LINE
  5
17D
330
1F
100
AcDbEntity
  8
AM_9
100
AcDbLine
 10
-7.592524441369217
 20
-13.16695649270746
 30
0.0
 11
-8.042475768149794
 21
-13.70318760289075
 31
0.0
  0
LINE
  5
17E
330
1F
100
AcDbEntity
  8
AM_9
100
AcDbLine
 10
-7.353110341040518
 20
-13.82474132725758
 30
0.0
 11
-7.83716582525563
 21
-16.56995639457299
 31
0.0
  0
LINE
  5
17F
330
1F
100
AcDbEntity
  8
AM_9
100
AcDbLine
 10
-8.28711715203694
 20
-17.1061875047563
 30
0.0
 11
-7.592524441369217
 21
-13.16695649270746
 31
0.0
  0
LINE
  5
180
330
1F
100
AcDbEntity
  8
AM_9
100
AcDbLine
 10
-7.35311034104125
 20
-13.8247413272576
 30
0.0
 11
-7.592524441369217
 21
-13.16695649270746
 31
0.0
  0
LINE
  5
181
330
1F
100
AcDbEntity
  8
AM_9
100
AcDbLine
 10
-8.28711715203694
 20
-17.1061875047563
 30
0.0
 11
-7.83716582525636
 21
-16.569956394573
 31
0.0
  0
LINE
  5
182
330
1F
100
AcDbEntity
  8
AM_9
100
AcDbLine
 10
-8.042475768149504
 20
13.70318760289492
 30
0.0
 11
-8.526531252364613
 21
16.44840267021032
 31
0.0
  0
LINE
  5
183
330
1F
100
AcDbEntity
  8
AM_9
100
AcDbLine
 10
-8.526531252364345
 20
16.44840267021026
 30
0.0
 11
-8.976482579144923
 21
16.98463378039355
 31
0.0
  0
LINE
  5
184
330
1F
100
AcDbEntity
  8
AM_9
100
AcDbLine
 10
-8.281889868477206
 20
13.04540276834471
 30
0.0
 11
-8.042475768149238
 21
13.70318760289485
 31
0.0
  0
LINE
  5
185
330
1F
100
AcDbEntity
  8
AM_9
100
AcDbLine
 10
-9.215896679472905
 20
-16.32684894583936
 30
0.0
 11
-8.976482579144939
 21
-16.98463378038949
 31
0.0
  0
LINE
  5
186
330
1F
100
AcDbEntity
  8
AM_9
100
AcDbLine
 10
-8.281889868477217
 20
-13.04540276834066
 30
0.0
 11
-8.731841195257793
 21
-13.58163387852395
 31
0.0
  0
LINE
  5
187
330
1F
100
AcDbEntity
  8
AM_9
100
AcDbLine
 10
-8.042475768149515
 20
-13.70318760289077
 30
0.0
 11
-8.526531252364627
 21
-16.44840267020617
 31
0.0
  0
LINE
  5
188
330
1F
100
AcDbEntity
  8
AM_9
100
AcDbLine
 10
-8.976482579144939
 20
-16.98463378038949
 30
0.0
 11
-8.281889868477217
 21
-13.04540276834066
 31
0.0
  0
LINE
  5
189
330
1F
100
AcDbEntity
  8
AM_9
100
AcDbLine
 10
-8.042475768149249
 20
-13.7031876028908
 30
0.0
 11
-8.281889868477217
 21
-13.04540276834066
 31
0.0
  0
LINE
  5
18A
330
1F
100
AcDbEntity
  8
AM_9
100
AcDbLine
 10
-8.976482579144939
 20
-16.98463378038949
 30
0.0
 11
-8.526531252364363
 21
-16.44840267020621
 31
0.0
  0
LINE
  5
18B
330
1F
100
AcDbEntity
  8
AM_9
100
AcDbLine
 10
-8.976482579144923
 20
16.98463378039355
 30
0.0
 11
-8.281889868477206
 21
13.04540276834471
 31
0.0
  0
LINE
  5
18C
330
1F
100
AcDbEntity
  8
AM_9
100
AcDbLine
 10
-8.731841195257783
 20
13.581633878528
 30
0.0
 11
-8.281889868477206
 21
13.04540276834471
 31
0.0
  0
LINE
  5
18D
330
1F
100
AcDbEntity
  8
AM_9
100
AcDbLine
 10
-8.976482579144923
 20
16.98463378039355
 30
0.0
 11
-9.215896679472891
 21
16.32684894584341
 31
0.0
  0
LINE
  5
18E
330
1F
100
AcDbEntity
  8
AM_9
100
AcDbLine
 10
-8.731841195257502
 20
13.58163387852802
 30
0.0
 11
-9.21589667947261
 21
16.32684894584343
 31
0.0
  0
LINE
  5
18F
330
1F
100
AcDbEntity
  8
AM_9
100
AcDbLine
 10
-9.215896679473344
 20
16.32684894584346
 30
0.0
 11
-9.66584800625392
 21
16.86308005602675
 31
0.0
  0
LINE
  5
190
330
1F
100
AcDbEntity
  8
AM_9
100
AcDbLine
 10
-8.971255295586204
 20
12.92384904397792
 30
0.0
 11
-8.731841195258236
 21
13.58163387852805
 31
0.0
  0
LINE
  5
191
330
1F
100
AcDbEntity
  8
AM_9
100
AcDbLine
 10
-9.66584800625392
 20
16.86308005602675
 30
0.0
 11
-8.971255295586204
 21
12.92384904397792
 31
0.0
  0
LINE
  5
192
330
1F
100
AcDbEntity
  8
AM_9
100
AcDbLine
 10
-9.421206622366782
 20
13.4600801541612
 30
0.0
 11
-8.971255295586204
 21
12.92384904397792
 31
0.0
  0
LINE
  5
193
330
1F
100
AcDbEntity
  8
AM_9
100
AcDbLine
 10
-9.66584800625392
 20
16.86308005602675
 30
0.0
 11
-9.905262106581889
 21
16.20529522147661
 31
0.0
  0
LINE
  5
194
330
1F
100
AcDbEntity
  8
AM_9
100
AcDbLine
 10
-9.905262106581905
 20
-16.20529522147246
 30
0.0
 11
-9.665848006253938
 21
-16.8630800560226
 31
0.0
  0
LINE
  5
195
330
1F
100
AcDbEntity
  8
AM_9
100
AcDbLine
 10
-8.971255295586214
 20
-12.92384904397377
 30
0.0
 11
-9.42120662236679
 21
-13.46008015415705
 31
0.0
  0
LINE
  5
196
330
1F
100
AcDbEntity
  8
AM_9
100
AcDbLine
 10
-8.731841195257514
 20
-13.58163387852387
 30
0.0
 11
-9.215896679472626
 21
-16.32684894583928
 31
0.0
  0
LINE
  5
197
330
1F
100
AcDbEntity
  8
AM_9
100
AcDbLine
 10
-9.665848006253938
 20
-16.8630800560226
 30
0.0
 11
-8.971255295586214
 21
-12.92384904397377
 31
0.0
  0
LINE
  5
198
330
1F
100
AcDbEntity
  8
AM_9
100
AcDbLine
 10
-8.731841195258248
 20
-13.5816338785239
 30
0.0
 11
-8.971255295586214
 21
-12.92384904397377
 31
0.0
  0
LINE
  5
199
330
1F
100
AcDbEntity
  8
AM_9
100
AcDbLine
 10
-9.665848006253938
 20
-16.8630800560226
 30
0.0
 11
-9.21589667947336
 21
-16.32684894583931
 31
0.0
  0
LINE
  5
19A
330
1F
100
AcDbEntity
  8
AM_9
100
AcDbLine
 10
-9.4212066223665
 20
13.46008015416122
 30
0.0
 11
-9.905262106581608
 21
16.20529522147663
 31
0.0
  0
LINE
  5
19B
330
1F
100
AcDbEntity
  8
AM_9
100
AcDbLine
 10
-9.905262106581343
 20
16.20529522147655
 30
0.0
 11
-10.35521343336192
 21
16.74152633165984
 31
0.0
  0
LINE
  5
19C
330
1F
100
AcDbEntity
  8
AM_9
100
AcDbLine
 10
-9.660620722694203
 20
12.80229531961101
 30
0.0
 11
-9.421206622366235
 21
13.46008015416114
 31
0.0
  0
LINE
  5
19D
330
1F
100
AcDbEntity
  8
AM_9
100
AcDbLine
 10
-10.5946275336899
 20
-16.08374149710565
 30
0.0
 11
-10.35521343336194
 21
-16.74152633165578
 31
0.0
  0
LINE
  5
19E
330
1F
100
AcDbEntity
  8
AM_9
100
AcDbLine
 10
-9.660620722694214
 20
-12.80229531960695
 30
0.0
 11
-10.11057204947479
 21
-13.33852642979024
 31
0.0
  0
LINE
  5
19F
330
1F
100
AcDbEntity
  8
AM_9
100
AcDbLine
 10
-9.421206622366512
 20
-13.46008015415707
 30
0.0
 11
-9.905262106581626
 21
-16.20529522147248
 31
0.0
  0
LINE
  5
1A0
330
1F
100
AcDbEntity
  8
AM_9
100
AcDbLine
 10
-10.35521343336194
 20
-16.74152633165578
 30
0.0
 11
-9.660620722694214
 21
-12.80229531960695
 31
0.0
  0
LINE
  5
1A1
330
1F
100
AcDbEntity
  8
AM_9
100
AcDbLine
 10
-9.421206622366247
 20
-13.46008015415709
 30
0.0
 11
-9.660620722694214
 21
-12.80229531960695
 31
0.0
  0
LINE
  5
1A2
330
1F
100
AcDbEntity
  8
AM_9
100
AcDbLine
 10
-10.35521343336194
 20
-16.74152633165578
 30
0.0
 11
-9.905262106581356
 21
-16.20529522147249
 31
0.0
  0
LINE
  5
1A3
330
1F
100
AcDbEntity
  8
AM_9
100
AcDbLine
 10
-10.35521343336192
 20
16.74152633165984
 30
0.0
 11
-9.660620722694203
 21
12.80229531961101
 31
0.0
  0
LINE
  5
1A4
330
1F
100
AcDbEntity
  8
AM_9
100
AcDbLine
 10
-10.11057204947478
 20
13.33852642979429
 30
0.0
 11
-9.660620722694203
 21
12.80229531961101
 31
0.0
  0
LINE
  5
1A5
330
1F
100
AcDbEntity
  8
AM_9
100
AcDbLine
 10
-10.35521343336192
 20
16.74152633165984
 30
0.0
 11
-10.59462753368989
 21
16.0837414971097
 31
0.0
  0
LINE
  5
1A6
330
1F
100
AcDbEntity
  8
AM_9
100
AcDbLine
 10
-10.79993747658378
 20
13.21697270542751
 30
0.0
 11
-10.3499861498032
 21
12.68074159524422
 31
0.0
  0
LINE
  5
1A7
330
1F
100
AcDbEntity
  8
AM_9
100
AcDbLine
 10
-11.04457886047092
 20
16.61997260729305
 30
0.0
 11
-11.28399296079889
 21
15.96218777274291
 31
0.0
  0
LINE
  5
1A8
330
1F
100
AcDbEntity
  8
AM_9
100
AcDbLine
 10
-10.11057204947451
 20
-13.33852642979017
 30
0.0
 11
-10.59462753368962
 21
-16.08374149710558
 31
0.0
  0
LINE
  5
1A9
330
1F
100
AcDbEntity
  8
AM_9
100
AcDbLine
 10
-10.11057204947524
 20
-13.33852642979019
 30
0.0
 11
-10.34998614980321
 21
-12.68074159524006
 31
0.0
  0
LINE
  5
1AA
330
1F
100
AcDbEntity
  8
AM_9
100
AcDbLine
 10
-11.04457886047093
 20
-16.61997260728889
 30
0.0
 11
-10.59462753369036
 21
-16.0837414971056
 31
0.0
  0
LINE
  5
1AB
330
1F
100
AcDbEntity
  8
AM_9
100
AcDbLine
 10
-11.04457886047093
 20
-16.61997260728889
 30
0.0
 11
-10.34998614980321
 21
-12.68074159524006
 31
0.0
  0
LINE
  5
1AC
330
1F
100
AcDbEntity
  8
AM_9
100
AcDbLine
 10
-11.2839929607989
 20
-15.96218777273875
 30
0.0
 11
-11.04457886047093
 21
-16.61997260728889
 31
0.0
  0
LINE
  5
1AD
330
1F
100
AcDbEntity
  8
AM_9
100
AcDbLine
 10
-10.34998614980321
 20
-12.68074159524006
 30
0.0
 11
-10.79993747658379
 21
-13.21697270542334
 31
0.0
  0
LINE
  5
1AE
330
1F
100
AcDbEntity
  8
AM_9
100
AcDbLine
 10
-10.1105720494745
 20
13.33852642979431
 30
0.0
 11
-10.59462753368961
 21
16.08374149710972
 31
0.0
  0
LINE
  5
1AF
330
1F
100
AcDbEntity
  8
AM_9
100
AcDbLine
 10
-11.04457886047092
 20
16.61997260729305
 30
0.0
 11
-10.3499861498032
 21
12.68074159524422
 31
0.0
  0
LINE
  5
1B0
330
1F
100
AcDbEntity
  8
AM_9
100
AcDbLine
 10
-10.59462753369034
 20
16.08374149710977
 30
0.0
 11
-11.04457886047092
 21
16.61997260729305
 31
0.0
  0
LINE
  5
1B1
330
1F
100
AcDbEntity
  8
AM_9
100
AcDbLine
 10
-10.3499861498032
 20
12.68074159524422
 30
0.0
 11
-10.11057204947523
 21
13.33852642979436
 31
0.0
  0
LINE
  5
1B2
330
1F
100
AcDbEntity
  8
AM_9
100
AcDbLine
 10
-10.79993747658351
 20
13.21697270542753
 30
0.0
 11
-11.28399296079862
 21
15.96218777274293
 31
0.0
  0
LINE
  5
1B3
330
1F
100
AcDbEntity
  8
AM_0
100
AcDbLine
 10
-11.50000000000003
 20
16.21961493773711
 30
0.0
 11
-11.73394428757892
 21
16.49841888292614
 31
0.0
  0
LINE
  5
1B4
330
1F
100
AcDbEntity
  8
AM_9
100
AcDbLine
 10
-11.28399296079834
 20
15.96218777274285
 30
0.0
 11
-11.50000000000003
 21
16.21961493773711
 31
0.0
  0
LINE
  5
1B5
330
1F
100
AcDbEntity
  8
AM_9
100
AcDbLine
 10
-11.0393515769112
 20
12.55918787087731
 30
0.0
 11
-10.79993747658323
 21
13.21697270542745
 31
0.0
  0
LINE
  5
1B6
330
1F
100
AcDbEntity
  8
AM_9
100
AcDbLine
 10
-10.79993747658352
 20
-13.21697270542336
 30
0.0
 11
-11.28399296079864
 21
-15.96218777273877
 31
0.0
  0
LINE
  5
1B7
330
1F
100
AcDbEntity
  8
AM_9
100
AcDbLine
 10
-10.79993747658324
 20
-13.2169727054233
 30
0.0
 11
-11.03935157691121
 21
-12.55918787087316
 31
0.0
  0
LINE
  5
1B8
330
1F
100
AcDbEntity
  8
AM_9
100
AcDbLine
 10
-11.50000000000005
 20
-16.21961493773296
 30
0.0
 11
-11.28399296079836
 21
-15.96218777273871
 31
0.0
  0
LINE
  5
1B9
330
1F
100
AcDbEntity
  8
AM_0
100
AcDbLine
 10
-11.73394428757893
 20
-16.49841888292199
 30
0.0
 11
-11.50000000000005
 21
-16.21961493773296
 31
0.0
  0
LINE
  5
1BA
330
1F
100
AcDbEntity
  8
AM_9
100
AcDbLine
 10
-11.50000000000003
 20
15.17165489797658
 30
0.0
 11
-11.0393515769112
 21
12.55918787087731
 31
0.0
  0
LINE
  5
1BB
330
1F
100
AcDbEntity
  8
AM_9
100
AcDbLine
 10
-11.48930290369178
 20
13.0954189810606
 30
0.0
 11
-11.0393515769112
 21
12.55918787087731
 31
0.0
  0
LINE
  5
1BC
330
1F
100
AcDbEntity
  8
AM_0
100
AcDbLine
 10
-11.73394428757892
 20
16.49841888292614
 30
0.0
 11
-11.97335838790688
 21
15.840634048376
 31
0.0
  0
LINE
  5
1BD
330
1F
100
AcDbEntity
  8
AM_0
100
AcDbLine
 10
-11.73394428757892
 20
16.49841888292614
 30
0.0
 11
-11.50000000000003
 21
15.17165489797658
 31
0.0
  0
LINE
  5
1BE
330
1F
100
AcDbEntity
  8
AM_9
100
AcDbLine
 10
-11.50000000000006
 20
-15.17165489797252
 30
0.0
 11
-11.03935157691121
 21
-12.55918787087316
 31
0.0
  0
LINE
  5
1BF
330
1F
100
AcDbEntity
  8
AM_0
100
AcDbLine
 10
-11.9733583879069
 20
-15.84063404837185
 30
0.0
 11
-11.73394428757893
 21
-16.49841888292199
 31
0.0
  0
LINE
  5
1C0
330
1F
100
AcDbEntity
  8
AM_9
100
AcDbLine
 10
-11.03935157691121
 20
-12.55918787087316
 30
0.0
 11
-11.48930290369179
 21
-13.09541898105645
 31
0.0
  0
LINE
  5
1C1
330
1F
100
AcDbEntity
  8
AM_0
100
AcDbLine
 10
-11.73394428757893
 20
-16.49841888292199
 30
0.0
 11
-11.50000000000006
 21
-15.17165489797252
 31
0.0
  0
LINE
  5
1C2
330
1F
100
AcDbEntity
  8
AM_0
100
AcDbLine
 10
-12.17866833080057
 20
12.9738652566938
 30
0.0
 11
-11.72871700401999
 21
12.43763414651051
 31
0.0
  0
LINE
  5
1C3
330
1F
100
AcDbEntity
  8
AM_0
100
AcDbLine
 10
-12.42330971468771
 20
16.37686515855934
 30
0.0
 11
-12.66272381501568
 21
15.71908032400921
 31
0.0
  0
LINE
  5
1C4
330
1F
100
AcDbEntity
  8
AM_0
100
AcDbLine
 10
-11.50000000000003
 20
13.15608522887783
 30
0.0
 11
-11.97335838790662
 21
15.84063404837602
 31
0.0
  0
LINE
  5
1C5
330
1F
100
AcDbEntity
  8
AM_0
100
AcDbLine
 10
-12.42330971468771
 20
16.37686515855934
 30
0.0
 11
-11.72871700401999
 21
12.43763414651051
 31
0.0
  0
LINE
  5
1C6
330
1F
100
AcDbEntity
  8
AM_0
100
AcDbLine
 10
-11.97335838790713
 20
15.84063404837606
 30
0.0
 11
-12.42330971468771
 21
16.37686515855934
 31
0.0
  0
LINE
  5
1C7
330
1F
100
AcDbEntity
  8
AM_9
100
AcDbLine
 10
-11.50000000000004
 20
13.06602895050064
 30
0.0
 11
-11.48930290369202
 21
13.09541898106065
 31
0.0
  0
LINE
  5
1C8
330
1F
100
AcDbEntity
  8
AM_0
100
AcDbLine
 10
-11.72871700401999
 20
12.43763414651051
 30
0.0
 11
-11.50000000000004
 21
13.06602895050064
 31
0.0
  0
LINE
  5
1C9
330
1F
100
AcDbEntity
  8
AM_9
100
AcDbLine
 10
-11.48930290369151
 20
13.09541898106062
 30
0.0
 11
-11.50000000000003
 21
13.15608522887783
 31
0.0
  0
LINE
  5
1CA
330
1F
100
AcDbEntity
  8
AM_0
100
AcDbLine
 10
-12.66272381501569
 20
-15.71908032400506
 30
0.0
 11
-12.42330971468772
 21
-16.37686515855519
 31
0.0
  0
LINE
  5
1CB
330
1F
100
AcDbEntity
  8
AM_0
100
AcDbLine
 10
-11.72871700402
 20
-12.43763414650636
 30
0.0
 11
-12.17866833080058
 21
-12.97386525668965
 31
0.0
  0
LINE
  5
1CC
330
1F
100
AcDbEntity
  8
AM_0
100
AcDbLine
 10
-11.50000000000006
 20
-13.15608522887377
 30
0.0
 11
-11.97335838790664
 21
-15.84063404837189
 31
0.0
  0
LINE
  5
1CD
330
1F
100
AcDbEntity
  8
AM_0
100
AcDbLine
 10
-12.42330971468772
 20
-16.37686515855519
 30
0.0
 11
-11.72871700402
 21
-12.43763414650636
 31
0.0
  0
LINE
  5
1CE
330
1F
100
AcDbEntity
  8
AM_0
100
AcDbLine
 10
-11.50000000000005
 20
-13.0660289504965
 30
0.0
 11
-11.72871700402
 21
-12.43763414650636
 31
0.0
  0
LINE
  5
1CF
330
1F
100
AcDbEntity
  8
AM_9
100
AcDbLine
 10
-11.48930290369203
 20
-13.0954189810565
 30
0.0
 11
-11.50000000000005
 21
-13.0660289504965
 31
0.0
  0
LINE
  5
1D0
330
1F
100
AcDbEntity
  8
AM_0
100
AcDbLine
 10
-12.42330971468772
 20
-16.37686515855519
 30
0.0
 11
-11.97335838790715
 21
-15.84063404837191
 31
0.0
  0
LINE
  5
1D1
330
1F
100
AcDbEntity
  8
AM_9
100
AcDbLine
 10
-11.48930290369152
 20
-13.09541898105648
 30
0.0
 11
-11.50000000000006
 21
-13.15608522887377
 31
0.0
  0
LINE
  5
1D2
330
1F
100
AcDbEntity
  8
AM_0
100
AcDbLine
 10
-12.17866833080064
 20
-12.97386525668969
 30
0.0
 11
-12.41808243112861
 21
-12.31608042213955
 31
0.0
  0
LINE
  5
1D3
330
1F
100
AcDbEntity
  8
AM_0
100
AcDbLine
 10
-13.11267514179633
 20
-16.25531143418838
 30
0.0
 11
-12.66272381501576
 21
-15.71908032400509
 31
0.0
  0
LINE
  5
1D4
330
1F
100
AcDbEntity
  8
AM_0
100
AcDbLine
 10
-12.66272381501573
 20
-15.71908032400507
 30
0.0
 11
-12.17866833080062
 21
-12.97386525668967
 31
0.0
  0
LINE
  5
1D5
330
1F
100
AcDbEntity
  8
AM_0
100
AcDbLine
 10
-13.11267514179633
 20
-16.25531143418838
 30
0.0
 11
-12.41808243112861
 21
-12.31608042213955
 31
0.0
  0
LINE
  5
1D6
330
1F
100
AcDbEntity
  8
AM_0
100
AcDbLine
 10
-13.3520892421243
 20
-15.59752659963824
 30
0.0
 11
-13.11267514179633
 21
-16.25531143418838
 31
0.0
  0
LINE
  5
1D7
330
1F
100
AcDbEntity
  8
AM_0
100
AcDbLine
 10
-12.41808243112861
 20
-12.31608042213955
 30
0.0
 11
-12.86803375790919
 21
-12.85231153232283
 31
0.0
  0
LINE
  5
1D8
330
1F
100
AcDbEntity
  8
AM_0
100
AcDbLine
 10
-12.66272381501574
 20
15.71908032400916
 30
0.0
 11
-13.11267514179632
 21
16.25531143419245
 31
0.0
  0
LINE
  5
1D9
330
1F
100
AcDbEntity
  8
AM_0
100
AcDbLine
 10
-12.4180824311286
 20
12.31608042214361
 30
0.0
 11
-12.17866833080063
 21
12.97386525669375
 31
0.0
  0
LINE
  5
1DA
330
1F
100
AcDbEntity
  8
AM_0
100
AcDbLine
 10
-12.66272381501571
 20
15.71908032400924
 30
0.0
 11
-12.17866833080061
 21
12.97386525669383
 31
0.0
  0
LINE
  5
1DB
330
1F
100
AcDbEntity
  8
AM_0
100
AcDbLine
 10
-13.11267514179632
 20
16.25531143419245
 30
0.0
 11
-12.4180824311286
 21
12.31608042214361
 31
0.0
  0
LINE
  5
1DC
330
1F
100
AcDbEntity
  8
AM_0
100
AcDbLine
 10
-12.86803375790918
 20
12.8523115323269
 30
0.0
 11
-12.4180824311286
 21
12.31608042214361
 31
0.0
  0
LINE
  5
1DD
330
1F
100
AcDbEntity
  8
AM_0
100
AcDbLine
 10
-13.11267514179632
 20
16.25531143419245
 30
0.0
 11
-13.35208924212428
 21
15.59752659964231
 31
0.0
  0
LINE
  5
1DE
330
1F
100
AcDbEntity
  8
AM_0
100
AcDbLine
 10
-12.86803375790911
 20
12.85231153232692
 30
0.0
 11
-13.35208924212421
 21
15.59752659964233
 31
0.0
  0
LINE
  5
1DF
330
1F
100
AcDbEntity
  8
AM_0
100
AcDbLine
 10
-13.35208924212414
 20
15.59752659964236
 30
0.0
 11
-13.80204056890472
 21
16.13375770982565
 31
0.0
  0
LINE
  5
1E0
330
1F
100
AcDbEntity
  8
AM_0
100
AcDbLine
 10
-13.107447858237
 20
12.19452669777681
 30
0.0
 11
-12.86803375790903
 21
12.85231153232695
 31
0.0
  0
LINE
  5
1E1
330
1F
100
AcDbEntity
  8
AM_0
100
AcDbLine
 10
-13.80204056890472
 20
16.13375770982565
 30
0.0
 11
-13.107447858237
 21
12.19452669777681
 31
0.0
  0
LINE
  5
1E2
330
1F
100
AcDbEntity
  8
AM_0
100
AcDbLine
 10
-13.55739918501758
 20
12.7307578079601
 30
0.0
 11
-13.107447858237
 21
12.19452669777681
 31
0.0
  0
LINE
  5
1E3
330
1F
100
AcDbEntity
  8
AM_0
100
AcDbLine
 10
-13.80204056890472
 20
16.13375770982565
 30
0.0
 11
-14.04145466923269
 21
15.47597287527551
 31
0.0
  0
LINE
  5
1E4
330
1F
100
AcDbEntity
  8
AM_0
100
AcDbLine
 10
-12.86803375790912
 20
-12.85231153232279
 30
0.0
 11
-13.35208924212423
 21
-15.59752659963819
 31
0.0
  0
LINE
  5
1E5
330
1F
100
AcDbEntity
  8
AM_0
100
AcDbLine
 10
-12.86803375790905
 20
-12.8523115323228
 30
0.0
 11
-13.10744785823701
 21
-12.19452669777266
 31
0.0
  0
LINE
  5
1E6
330
1F
100
AcDbEntity
  8
AM_0
100
AcDbLine
 10
-13.80204056890473
 20
-16.1337577098215
 30
0.0
 11
-13.35208924212416
 21
-15.59752659963821
 31
0.0
  0
LINE
  5
1E7
330
1F
100
AcDbEntity
  8
AM_0
100
AcDbLine
 10
-13.80204056890473
 20
-16.1337577098215
 30
0.0
 11
-13.10744785823701
 21
-12.19452669777266
 31
0.0
  0
LINE
  5
1E8
330
1F
100
AcDbEntity
  8
AM_0
100
AcDbLine
 10
-14.0414546692327
 20
-15.47597287527136
 30
0.0
 11
-13.80204056890473
 21
-16.1337577098215
 31
0.0
  0
LINE
  5
1E9
330
1F
100
AcDbEntity
  8
AM_0
100
AcDbLine
 10
-13.10744785823701
 20
-12.19452669777266
 30
0.0
 11
-13.55739918501759
 21
-12.73075780795595
 31
0.0
  0
LINE
  5
1EA
330
1F
100
AcDbEntity
  8
AM_0
100
AcDbLine
 10
-14.73082009634141
 20
-15.35441915090445
 30
0.0
 11
-14.49140599601344
 21
-16.01220398545459
 31
0.0
  0
LINE
  5
1EB
330
1F
100
AcDbEntity
  8
AM_0
100
AcDbLine
 10
-13.79681328534572
 20
-12.07297297340575
 30
0.0
 11
-14.2467646121263
 21
-12.60920408358904
 31
0.0
  0
LINE
  5
1EC
330
1F
100
AcDbEntity
  8
AM_0
100
AcDbLine
 10
-13.5573991850177
 20
12.73075780796002
 30
0.0
 11
-14.04145466923281
 21
15.47597287527543
 31
0.0
  0
LINE
  5
1ED
330
1F
100
AcDbEntity
  8
AM_0
100
AcDbLine
 10
-14.04145466923285
 20
15.47597287527545
 30
0.0
 11
-14.49140599601342
 21
16.01220398545874
 31
0.0
  0
LINE
  5
1EE
330
1F
100
AcDbEntity
  8
AM_0
100
AcDbLine
 10
-13.79681328534571
 20
12.0729729734099
 30
0.0
 11
-13.55739918501774
 21
12.73075780796004
 31
0.0
  0
LINE
  5
1EF
330
1F
100
AcDbEntity
  8
AM_0
100
AcDbLine
 10
-14.49140599601342
 20
16.01220398545874
 30
0.0
 11
-13.79681328534571
 21
12.0729729734099
 31
0.0
  0
LINE
  5
1F0
330
1F
100
AcDbEntity
  8
AM_0
100
AcDbLine
 10
-14.24676461212629
 20
12.60920408359319
 30
0.0
 11
-13.79681328534571
 21
12.0729729734099
 31
0.0
  0
LINE
  5
1F1
330
1F
100
AcDbEntity
  8
AM_0
100
AcDbLine
 10
-14.49140599601342
 20
16.01220398545874
 30
0.0
 11
-14.73082009634139
 21
15.3544191509086
 31
0.0
  0
LINE
  5
1F2
330
1F
100
AcDbEntity
  8
AM_0
100
AcDbLine
 10
-13.55739918501771
 20
-12.73075780795597
 30
0.0
 11
-14.04145466923283
 21
-15.47597287527138
 31
0.0
  0
LINE
  5
1F3
330
1F
100
AcDbEntity
  8
AM_0
100
AcDbLine
 10
-14.49140599601344
 20
-16.01220398545459
 30
0.0
 11
-13.79681328534572
 21
-12.07297297340575
 31
0.0
  0
LINE
  5
1F4
330
1F
100
AcDbEntity
  8
AM_0
100
AcDbLine
 10
-13.55739918501775
 20
-12.73075780795589
 30
0.0
 11
-13.79681328534572
 21
-12.07297297340575
 31
0.0
  0
LINE
  5
1F5
330
1F
100
AcDbEntity
  8
AM_0
100
AcDbLine
 10
-14.49140599601344
 20
-16.01220398545459
 30
0.0
 11
-14.04145466923286
 21
-15.4759728752713
 31
0.0
  0
LINE
  5
1F6
330
1F
100
AcDbEntity
  8
AM_0
100
AcDbLine
 10
-14.93613003923467
 20
12.48765035922641
 30
0.0
 11
-14.4861787124541
 21
11.95141924904312
 31
0.0
  0
LINE
  5
1F7
330
1F
100
AcDbEntity
  8
AM_0
100
AcDbLine
 10
-15.18077142312181
 20
15.89065026109195
 30
0.0
 11
-15.42018552344978
 21
15.23286542654181
 31
0.0
  0
LINE
  5
1F8
330
1F
100
AcDbEntity
  8
AM_0
100
AcDbLine
 10
-14.24676461212621
 20
-12.60920408358908
 30
0.0
 11
-14.73082009634132
 21
-15.35441915090448
 31
0.0
  0
LINE
  5
1F9
330
1F
100
AcDbEntity
  8
AM_0
100
AcDbLine
 10
-14.24676461212614
 20
-12.60920408358909
 30
0.0
 11
-14.48617871245411
 21
-11.95141924903896
 31
0.0
  0
LINE
  5
1FA
330
1F
100
AcDbEntity
  8
AM_0
100
AcDbLine
 10
-15.18077142312183
 20
-15.89065026108779
 30
0.0
 11
-14.73082009634125
 21
-15.3544191509045
 31
0.0
  0
LINE
  5
1FB
330
1F
100
AcDbEntity
  8
AM_0
100
AcDbLine
 10
-14.2467646121262
 20
12.60920408359322
 30
0.0
 11
-14.73082009634131
 21
15.35441915090863
 31
0.0
  0
LINE
  5
1FC
330
1F
100
AcDbEntity
  8
AM_0
100
AcDbLine
 10
-15.18077142312181
 20
15.89065026109195
 30
0.0
 11
-14.4861787124541
 21
11.95141924904312
 31
0.0
  0
LINE
  5
1FD
330
1F
100
AcDbEntity
  8
AM_0
100
AcDbLine
 10
-14.73082009634124
 20
15.35441915090866
 30
0.0
 11
-15.18077142312181
 21
15.89065026109195
 31
0.0
  0
LINE
  5
1FE
330
1F
100
AcDbEntity
  8
AM_0
100
AcDbLine
 10
-14.4861787124541
 20
11.95141924904312
 30
0.0
 11
-14.24676461212613
 21
12.60920408359326
 31
0.0
  0
LINE
  5
1FF
330
1F
100
AcDbEntity
  8
AM_0
100
AcDbLine
 10
-15.18077142312183
 20
-15.89065026108779
 30
0.0
 11
-14.48617871245411
 21
-11.95141924903896
 31
0.0
  0
LINE
  5
200
330
1F
100
AcDbEntity
  8
AM_0
100
AcDbLine
 10
-15.4201855234498
 20
-15.23286542653765
 30
0.0
 11
-15.18077142312183
 21
-15.89065026108779
 31
0.0
  0
LINE
  5
201
330
1F
100
AcDbEntity
  8
AM_0
100
AcDbLine
 10
-14.48617871245411
 20
-11.95141924903896
 30
0.0
 11
-14.93613003923468
 21
-12.48765035922224
 31
0.0
  0
LINE
  5
202
330
1F
100
AcDbEntity
  8
AM_0
100
AcDbLine
 10
-14.93613003923482
 20
-12.48765035922228
 30
0.0
 11
-15.42018552344993
 21
-15.23286542653768
 31
0.0
  0
LINE
  5
203
330
1F
100
AcDbEntity
  8
AM_0
100
AcDbLine
 10
-14.93613003923474
 20
-12.48765035922218
 30
0.0
 11
-15.1755441395627
 21
-11.82986552467205
 31
0.0
  0
LINE
  5
204
330
1F
100
AcDbEntity
  8
AM_0
100
AcDbLine
 10
-15.87013685023042
 20
-15.76909653672088
 30
0.0
 11
-15.42018552344985
 21
-15.23286542653759
 31
0.0
  0
LINE
  5
205
330
1F
100
AcDbEntity
  8
AM_0
100
AcDbLine
 10
-14.93613003923481
 20
12.48765035922633
 30
0.0
 11
-15.42018552344992
 21
15.23286542654173
 31
0.0
  0
LINE
  5
206
330
1F
100
AcDbEntity
  8
AM_0
100
AcDbLine
 10
-15.42018552344983
 20
15.23286542654177
 30
0.0
 11
-15.87013685023041
 21
15.76909653672506
 31
0.0
  0
LINE
  5
207
330
1F
100
AcDbEntity
  8
AM_0
100
AcDbLine
 10
-15.17554413956269
 20
11.82986552467622
 30
0.0
 11
-14.93613003923472
 21
12.48765035922636
 31
0.0
  0
LINE
  5
208
330
1F
100
AcDbEntity
  8
AM_0
100
AcDbLine
 10
-15.87013685023043
 20
-15.76909653672088
 30
0.0
 11
-15.1755441395627
 21
-11.82986552467205
 31
0.0
  0
LINE
  5
209
330
1F
100
AcDbEntity
  8
AM_0
100
AcDbLine
 10
-17.49245600092098
 20
-13.45218467536262
 30
0.0
 11
-15.87013685023043
 21
-15.7690965367209
 31
0.0
  0
LINE
  5
20A
330
1F
100
AcDbEntity
  8
AM_0
100
AcDbLine
 10
-15.17554413956271
 20
-11.82986552467207
 30
0.0
 11
-17.49245600092098
 21
-13.45218467536262
 31
0.0
  0
LINE
  5
20B
330
1F
100
AcDbEntity
  8
AM_0
100
AcDbLine
 10
-15.87013685023041
 20
15.76909653672506
 30
0.0
 11
-15.17554413956269
 21
11.82986552467622
 31
0.0
  0
LINE
  5
20C
330
1F
100
AcDbEntity
  8
AM_0
100
AcDbLine
 10
-17.49245600092097
 20
13.4521846753668
 30
0.0
 11
-15.1755441395627
 21
11.82986552467624
 31
0.0
  0
LINE
  5
20D
330
1F
100
AcDbEntity
  8
AM_0
100
AcDbLine
 10
-15.87013685023041
 20
15.76909653672508
 30
0.0
 11
-17.49245600092097
 21
13.4521846753668
 31
0.0
  0
LINE
  5
20E
330
1F
100
AcDbEntity
  8
AM_9
100
AcDbLine
 10
-6.576054384559247
 20
17.01282488156294
 30
0.0
 11
-6.858386297818919
 21
17.34929495349415
 31
0.0
  0
LINE
  5
20F
330
1F
100
AcDbEntity
  8
AM_9
100
AcDbLine
 10
-6.163793587151202
 20
13.41006394144532
 30
0.0
 11
-6.013567913875432
 21
13.82280558659287
 31
0.0
  0
LINE
  5
210
330
1F
100
AcDbEntity
  8
AM_9
100
AcDbLine
 10
-7.016358635273145
 20
16.91526952344115
 30
0.0
 11
-6.460684466738971
 21
13.76388471380209
 31
0.0
  0
LINE
  5
211
330
1F
100
AcDbEntity
  8
AM_9
100
AcDbLine
 10
-6.46068446673858
 20
13.76388471380203
 30
0.0
 11
-6.1637935871512
 21
13.41006394144532
 31
0.0
  0
LINE
  5
212
330
1F
100
AcDbEntity
  8
AM_9
100
AcDbLine
 10
-6.858386297818918
 20
17.34929495349415
 30
0.0
 11
-7.016358635272774
 21
16.91526952344122
 31
0.0
  0
LINE
  5
213
330
1F
100
AcDbEntity
  8
AM_9
100
AcDbLine
 10
-6.163793587151201
 20
13.41006394144532
 30
0.0
 11
-6.858386297818918
 21
17.34929495349415
 31
0.0
  0
LINE
  5
214
330
1F
100
AcDbEntity
  8
AM_9
100
AcDbLine
 10
-7.01635863527278
 20
-16.91526952343709
 30
0.0
 11
-6.858386297818937
 21
-17.34929495348999
 31
0.0
  0
LINE
  5
215
330
1F
100
AcDbEntity
  8
AM_9
100
AcDbLine
 10
-6.163793587151209
 20
-13.41006394144115
 30
0.0
 11
-6.460684466738569
 21
-13.76388471379785
 31
0.0
  0
LINE
  5
216
330
1F
100
AcDbEntity
  8
AM_9
100
AcDbLine
 10
-6.46068446673898
 20
-13.76388471379795
 30
0.0
 11
-7.016358635273162
 21
-16.91526952343701
 31
0.0
  0
LINE
  5
217
330
1F
100
AcDbEntity
  8
AM_9
100
AcDbLine
 10
-6.013567913875447
 20
-13.82280558658869
 30
0.0
 11
-6.163793587151211
 21
-13.41006394144115
 31
0.0
  0
LINE
  5
218
330
1F
100
AcDbEntity
  8
AM_9
100
AcDbLine
 10
-6.858386297818938
 20
-17.34929495348999
 30
0.0
 11
-6.576054384559273
 21
-17.01282488155879
 31
0.0
  0
LINE
  5
219
330
1F
100
AcDbEntity
  8
AM_9
100
AcDbLine
 10
-6.16379358715121
 20
-13.41006394144116
 30
0.0
 11
-6.858386297818937
 21
-17.34929495348999
 31
0.0
  0
LINE
  5
21A
330
1F
100
AcDbEntity
  8
AM_9
100
AcDbLine
 10
-7.250860845340507
 20
16.87392045677049
 30
0.0
 11
-7.547751724927918
 21
17.22774122912724
 31
0.0
  0
LINE
  5
21B
330
1F
100
AcDbEntity
  8
AM_9
100
AcDbLine
 10
-6.853159014260201
 20
13.28851021707841
 30
0.0
 11
-6.695186676806329
 21
13.72253564713139
 31
0.0
  0
LINE
  5
21C
330
1F
100
AcDbEntity
  8
AM_9
100
AcDbLine
 10
-6.69518667680596
 20
13.72253564713149
 30
0.0
 11
-7.250860845340133
 21
16.87392045677056
 31
0.0
  0
LINE
  5
21D
330
1F
100
AcDbEntity
  8
AM_9
100
AcDbLine
 10
-7.705724062382143
 20
16.79371579907426
 30
0.0
 11
-7.150049893847969
 21
13.64233098943519
 31
0.0
  0
LINE
  5
21E
330
1F
100
AcDbEntity
  8
AM_9
100
AcDbLine
 10
-7.150049893847568
 20
13.64233098943511
 30
0.0
 11
-6.853159014260198
 21
13.28851021707841
 31
0.0
  0
LINE
  5
21F
330
1F
100
AcDbEntity
  8
AM_9
100
AcDbLine
 10
-7.547751724927917
 20
17.22774122912724
 30
0.0
 11
-7.705724062381767
 21
16.79371579907432
 31
0.0
  0
LINE
  5
220
330
1F
100
AcDbEntity
  8
AM_9
100
AcDbLine
 10
-6.853159014260199
 20
13.28851021707841
 30
0.0
 11
-7.547751724927917
 21
17.22774122912724
 31
0.0
  0
LINE
  5
221
330
1F
100
AcDbEntity
  8
AM_9
100
AcDbLine
 10
-7.940226272449448
 20
16.75236673240361
 30
0.0
 11
-8.237117152036928
 21
17.10618750476045
 31
0.0
  0
LINE
  5
222
330
1F
100
AcDbEntity
  8
AM_9
100
AcDbLine
 10
-7.542524441369213
 20
13.16695649271161
 30
0.0
 11
-7.384552103915303
 21
13.60098192276469
 31
0.0
  0
LINE
  5
223
330
1F
100
AcDbEntity
  8
AM_9
100
AcDbLine
 10
-7.384552103914971
 20
13.60098192276459
 30
0.0
 11
-7.940226272449147
 21
16.75236673240366
 31
0.0
  0
LINE
  5
224
330
1F
100
AcDbEntity
  8
AM_9
100
AcDbLine
 10
-7.250860845340152
 20
-16.87392045676641
 30
0.0
 11
-6.69518667680597
 21
-13.72253564712734
 31
0.0
  0
LINE
  5
225
330
1F
100
AcDbEntity
  8
AM_9
100
AcDbLine
 10
-6.695186676806295
 20
-13.72253564712747
 30
0.0
 11
-6.85315901426021
 21
-13.28851021707437
 31
0.0
  0
LINE
  5
226
330
1F
100
AcDbEntity
  8
AM_9
100
AcDbLine
 10
-7.547751724927936
 20
-17.2277412291232
 30
0.0
 11
-7.250860845340444
 21
-16.87392045676635
 31
0.0
  0
LINE
  5
227
330
1F
100
AcDbEntity
  8
AM_9
100
AcDbLine
 10
-8.395089489490143
 20
16.67216207470736
 30
0.0
 11
-7.839415320955967
 21
13.52077726506829
 31
0.0
  0
LINE
  5
228
330
1F
100
AcDbEntity
  8
AM_9
100
AcDbLine
 10
-7.839415320956781
 20
13.52077726506855
 30
0.0
 11
-7.542524441369212
 21
13.16695649271161
 31
0.0
  0
LINE
  5
229
330
1F
100
AcDbEntity
  8
AM_9
100
AcDbLine
 10
-8.237117152036928
 20
17.10618750476045
 30
0.0
 11
-8.395089489490887
 21
16.67216207470723
 31
0.0
  0
LINE
  5
22A
330
1F
100
AcDbEntity
  8
AM_9
100
AcDbLine
 10
-7.542524441369212
 20
13.16695649271161
 30
0.0
 11
-8.237117152036928
 21
17.10618750476045
 31
0.0
  0
LINE
  5
22B
330
1F
100
AcDbEntity
  8
AM_9
100
AcDbLine
 10
-7.705724062381828
 20
-16.79371579907016
 30
0.0
 11
-7.547751724927935
 21
-17.2277412291232
 31
0.0
  0
LINE
  5
22C
330
1F
100
AcDbEntity
  8
AM_9
100
AcDbLine
 10
-6.853159014260207
 20
-13.28851021707437
 30
0.0
 11
-7.150049893847657
 21
-13.64233098943117
 31
0.0
  0
LINE
  5
22D
330
1F
100
AcDbEntity
  8
AM_9
100
AcDbLine
 10
-6.853159014260208
 20
-13.28851021707437
 30
0.0
 11
-7.547751724927935
 21
-17.2277412291232
 31
0.0
  0
LINE
  5
22E
330
1F
100
AcDbEntity
  8
AM_9
100
AcDbLine
 10
-7.150049893847979
 20
-13.64233098943104
 30
0.0
 11
-7.705724062382161
 21
-16.79371579907011
 31
0.0
  0
LINE
  5
22F
330
1F
100
AcDbEntity
  8
AM_9
100
AcDbLine
 10
-8.629591699557437
 20
16.6308130080367
 30
0.0
 11
-8.926482579144928
 21
16.98463378039355
 31
0.0
  0
LINE
  5
230
330
1F
100
AcDbEntity
  8
AM_9
100
AcDbLine
 10
-8.23188986847721
 20
13.04540276834471
 30
0.0
 11
-8.073917531023296
 21
13.47942819839781
 31
0.0
  0
LINE
  5
231
330
1F
100
AcDbEntity
  8
AM_9
100
AcDbLine
 10
-8.073917531022971
 20
13.47942819839768
 30
0.0
 11
-8.629591699557146
 21
16.63081300803675
 31
0.0
  0
LINE
  5
232
330
1F
100
AcDbEntity
  8
AM_9
100
AcDbLine
 10
-9.08445491659914
 20
16.55060835034056
 30
0.0
 11
-8.528780748064966
 21
13.39922354070149
 31
0.0
  0
LINE
  5
233
330
1F
100
AcDbEntity
  8
AM_9
100
AcDbLine
 10
-8.52878074806458
 20
13.39922354070142
 30
0.0
 11
-8.23188986847721
 21
13.04540276834471
 31
0.0
  0
LINE
  5
234
330
1F
100
AcDbEntity
  8
AM_9
100
AcDbLine
 10
-8.926482579144928
 20
16.98463378039355
 30
0.0
 11
-9.08445491659878
 21
16.55060835034062
 31
0.0
  0
LINE
  5
235
330
1F
100
AcDbEntity
  8
AM_9
100
AcDbLine
 10
-8.23188986847721
 20
13.04540276834471
 30
0.0
 11
-8.926482579144928
 21
16.98463378039355
 31
0.0
  0
LINE
  5
236
330
1F
100
AcDbEntity
  8
AM_9
100
AcDbLine
 10
-8.395089489490866
 20
-16.67216207470318
 30
0.0
 11
-8.237117152036948
 21
-17.1061875047563
 31
0.0
  0
LINE
  5
237
330
1F
100
AcDbEntity
  8
AM_9
100
AcDbLine
 10
-7.542524441369219
 20
-13.16695649270746
 30
0.0
 11
-7.839415320956719
 21
-13.52077726506432
 31
0.0
  0
LINE
  5
238
330
1F
100
AcDbEntity
  8
AM_9
100
AcDbLine
 10
-7.839415320955978
 20
-13.52077726506424
 30
0.0
 11
-8.395089489490159
 21
-16.67216207470331
 31
0.0
  0
LINE
  5
239
330
1F
100
AcDbEntity
  8
AM_9
100
AcDbLine
 10
-7.940226272449164
 20
-16.7523667323995
 30
0.0
 11
-7.384552103914983
 21
-13.60098192276043
 31
0.0
  0
LINE
  5
23A
330
1F
100
AcDbEntity
  8
AM_9
100
AcDbLine
 10
-7.384552103915307
 20
-13.60098192276056
 30
0.0
 11
-7.542524441369221
 21
-13.16695649270746
 31
0.0
  0
LINE
  5
23B
330
1F
100
AcDbEntity
  8
AM_9
100
AcDbLine
 10
-8.237117152036948
 20
-17.1061875047563
 30
0.0
 11
-7.940226272449455
 21
-16.75236673239944
 31
0.0
  0
LINE
  5
23C
330
1F
100
AcDbEntity
  8
AM_9
100
AcDbLine
 10
-7.542524441369221
 20
-13.16695649270746
 30
0.0
 11
-8.237117152036948
 21
-17.1061875047563
 31
0.0
  0
LINE
  5
23D
330
1F
100
AcDbEntity
  8
AM_9
100
AcDbLine
 10
-9.08445491659879
 20
-16.55060835033647
 30
0.0
 11
-8.926482579144947
 21
-16.98463378038938
 31
0.0
  0
LINE
  5
23E
330
1F
100
AcDbEntity
  8
AM_9
100
AcDbLine
 10
-8.231889868477218
 20
-13.04540276834055
 30
0.0
 11
-8.52878074806458
 21
-13.39922354069724
 31
0.0
  0
LINE
  5
23F
330
1F
100
AcDbEntity
  8
AM_9
100
AcDbLine
 10
-8.528780748064976
 20
-13.39922354069735
 30
0.0
 11
-9.084454916599158
 21
-16.55060835033641
 31
0.0
  0
LINE
  5
240
330
1F
100
AcDbEntity
  8
AM_9
100
AcDbLine
 10
-8.629591699557164
 20
-16.63081300803271
 30
0.0
 11
-8.073917531022982
 21
-13.47942819839365
 31
0.0
  0
LINE
  5
241
330
1F
100
AcDbEntity
  8
AM_9
100
AcDbLine
 10
-8.073917531023355
 20
-13.47942819839351
 30
0.0
 11
-8.23188986847722
 21
-13.04540276834055
 31
0.0
  0
LINE
  5
242
330
1F
100
AcDbEntity
  8
AM_9
100
AcDbLine
 10
-8.926482579144947
 20
-16.98463378038938
 30
0.0
 11
-8.629591699557546
 21
-16.63081300803265
 31
0.0
  0
LINE
  5
243
330
1F
100
AcDbEntity
  8
AM_9
100
AcDbLine
 10
-8.23188986847722
 20
-13.04540276834055
 30
0.0
 11
-8.926482579144947
 21
-16.98463378038938
 31
0.0
  0
LINE
  5
244
330
1F
100
AcDbEntity
  8
AM_9
100
AcDbLine
 10
-9.77382034370714
 20
16.42905462597375
 30
0.0
 11
-9.218146175172965
 21
13.27766981633468
 31
0.0
  0
LINE
  5
245
330
1F
100
AcDbEntity
  8
AM_9
100
AcDbLine
 10
-9.218146175173702
 20
13.27766981633478
 30
0.0
 11
-8.921255295586196
 21
12.92384904397791
 31
0.0
  0
LINE
  5
246
330
1F
100
AcDbEntity
  8
AM_9
100
AcDbLine
 10
-9.615848006253913
 20
16.86308005602675
 30
0.0
 11
-9.773820343707838
 21
16.42905462597362
 31
0.0
  0
LINE
  5
247
330
1F
100
AcDbEntity
  8
AM_9
100
AcDbLine
 10
-9.318957126666424
 20
16.5092592836699
 30
0.0
 11
-9.615848006253913
 21
16.86308005602675
 31
0.0
  0
LINE
  5
248
330
1F
100
AcDbEntity
  8
AM_9
100
AcDbLine
 10
-8.921255295586196
 20
12.92384904397791
 30
0.0
 11
-8.763282958132283
 21
13.35787447403101
 31
0.0
  0
LINE
  5
249
330
1F
100
AcDbEntity
  8
AM_9
100
AcDbLine
 10
-8.921255295586196
 20
12.92384904397792
 30
0.0
 11
-9.615848006253913
 21
16.86308005602675
 31
0.0
  0
LINE
  5
24A
330
1F
100
AcDbEntity
  8
AM_9
100
AcDbLine
 10
-8.763282958131969
 20
13.35787447403088
 30
0.0
 11
-9.318957126666144
 21
16.50925928366995
 31
0.0
  0
LINE
  5
24B
330
1F
100
AcDbEntity
  8
AM_9
100
AcDbLine
 10
-10.46318577081615
 20
16.30750090160686
 30
0.0
 11
-9.907511602281978
 21
13.1561160919678
 31
0.0
  0
LINE
  5
24C
330
1F
100
AcDbEntity
  8
AM_9
100
AcDbLine
 10
-9.907511602281566
 20
13.15611609196769
 30
0.0
 11
-9.61062072269421
 21
12.802295319611
 31
0.0
  0
LINE
  5
24D
330
1F
100
AcDbEntity
  8
AM_9
100
AcDbLine
 10
-10.30521343336192
 20
16.74152633165984
 30
0.0
 11
-10.46318577081577
 21
16.30750090160693
 31
0.0
  0
LINE
  5
24E
330
1F
100
AcDbEntity
  8
AM_9
100
AcDbLine
 10
-9.773820343707847
 20
-16.42905462596949
 30
0.0
 11
-9.61584800625393
 21
-16.8630800560226
 31
0.0
  0
LINE
  5
24F
330
1F
100
AcDbEntity
  8
AM_9
100
AcDbLine
 10
-8.921255295586203
 20
-12.92384904397376
 30
0.0
 11
-9.2181461751737
 21
-13.27766981633062
 31
0.0
  0
LINE
  5
250
330
1F
100
AcDbEntity
  8
AM_9
100
AcDbLine
 10
-9.218146175172976
 20
-13.27766981633055
 30
0.0
 11
-9.773820343707158
 21
-16.42905462596961
 31
0.0
  0
LINE
  5
251
330
1F
100
AcDbEntity
  8
AM_9
100
AcDbLine
 10
-10.00832255377457
 20
16.38770555930315
 30
0.0
 11
-10.30521343336192
 21
16.74152633165984
 31
0.0
  0
LINE
  5
252
330
1F
100
AcDbEntity
  8
AM_9
100
AcDbLine
 10
-9.61062072269421
 20
12.802295319611
 30
0.0
 11
-9.452648385240368
 21
13.2363207496639
 31
0.0
  0
LINE
  5
253
330
1F
100
AcDbEntity
  8
AM_9
100
AcDbLine
 10
-9.61062072269421
 20
12.80229531961101
 30
0.0
 11
-10.30521343336192
 21
16.74152633165984
 31
0.0
  0
LINE
  5
254
330
1F
100
AcDbEntity
  8
AM_9
100
AcDbLine
 10
-9.452648385240966
 20
13.23632074966399
 30
0.0
 11
-10.00832255377514
 21
16.38770555930305
 31
0.0
  0
LINE
  5
255
330
1F
100
AcDbEntity
  8
AM_9
100
AcDbLine
 10
-9.318957126666161
 20
-16.5092592836658
 30
0.0
 11
-8.76328295813198
 21
-13.35787447402674
 31
0.0
  0
LINE
  5
256
330
1F
100
AcDbEntity
  8
AM_9
100
AcDbLine
 10
-8.763282958132292
 20
-13.35787447402686
 30
0.0
 11
-8.921255295586205
 21
-12.92384904397376
 31
0.0
  0
LINE
  5
257
330
1F
100
AcDbEntity
  8
AM_9
100
AcDbLine
 10
-9.61584800625393
 20
-16.8630800560226
 30
0.0
 11
-9.318957126666442
 21
-16.50925928366575
 31
0.0
  0
LINE
  5
258
330
1F
100
AcDbEntity
  8
AM_9
100
AcDbLine
 10
-8.921255295586205
 20
-12.92384904397377
 30
0.0
 11
-9.61584800625393
 21
-16.8630800560226
 31
0.0
  0
LINE
  5
259
330
1F
100
AcDbEntity
  8
AM_9
100
AcDbLine
 10
-10.46318577081579
 20
-16.30750090160277
 30
0.0
 11
-10.30521343336194
 21
-16.74152633165569
 31
0.0
  0
LINE
  5
25A
330
1F
100
AcDbEntity
  8
AM_9
100
AcDbLine
 10
-9.610620722694215
 20
-12.80229531960685
 30
0.0
 11
-9.907511602281584
 21
-13.15611609196356
 31
0.0
  0
LINE
  5
25B
330
1F
100
AcDbEntity
  8
AM_9
100
AcDbLine
 10
-9.907511602281987
 20
-13.15611609196364
 30
0.0
 11
-10.46318577081617
 21
-16.3075009016027
 31
0.0
  0
LINE
  5
25C
330
1F
100
AcDbEntity
  8
AM_9
100
AcDbLine
 10
-10.00832255377516
 20
-16.387705559299
 30
0.0
 11
-9.452648385240977
 21
-13.23632074965994
 31
0.0
  0
LINE
  5
25D
330
1F
100
AcDbEntity
  8
AM_9
100
AcDbLine
 10
-9.452648385240416
 20
-13.23632074965965
 30
0.0
 11
-9.610620722694216
 21
-12.80229531960685
 31
0.0
  0
LINE
  5
25E
330
1F
100
AcDbEntity
  8
AM_9
100
AcDbLine
 10
-10.30521343336194
 20
-16.74152633165569
 30
0.0
 11
-10.00832255377466
 21
-16.38770555929909
 31
0.0
  0
LINE
  5
25F
330
1F
100
AcDbEntity
  8
AM_9
100
AcDbLine
 10
-9.610620722694216
 20
-12.80229531960686
 30
0.0
 11
-10.30521343336194
 21
-16.74152633165569
 31
0.0
  0
LINE
  5
260
330
1F
100
AcDbEntity
  8
AM_9
100
AcDbLine
 10
-10.69768798088342
 20
16.26615183493621
 30
0.0
 11
-10.99457886047091
 21
16.61997260729305
 31
0.0
  0
LINE
  5
261
330
1F
100
AcDbEntity
  8
AM_9
100
AcDbLine
 10
-10.29998614980319
 20
12.68074159524422
 30
0.0
 11
-10.14201381234928
 21
13.11476702529731
 31
0.0
  0
LINE
  5
262
330
1F
100
AcDbEntity
  8
AM_9
100
AcDbLine
 10
-10.14201381234897
 20
13.11476702529719
 30
0.0
 11
-10.69768798088314
 21
16.26615183493626
 31
0.0
  0
LINE
  5
263
330
1F
100
AcDbEntity
  8
AM_9
100
AcDbLine
 10
-11.00000000000005
 20
15.32078634189107
 30
0.0
 11
-10.59687702939061
 21
13.03456236760099
 31
0.0
  0
LINE
  5
264
330
1F
100
AcDbEntity
  8
AM_9
100
AcDbLine
 10
-10.59687702939063
 20
13.03456236760101
 30
0.0
 11
-10.29998614980319
 21
12.68074159524422
 31
0.0
  0
LINE
  5
265
330
1F
100
AcDbEntity
  8
AM_9
100
AcDbLine
 10
-10.99457886047091
 20
16.61997260729305
 30
0.0
 11
-11.00000000000005
 21
16.60507814884902
 31
0.0
  0
LINE
  5
266
330
1F
100
AcDbEntity
  8
AM_9
100
AcDbLine
 10
-10.29998614980319
 20
12.68074159524422
 30
0.0
 11
-10.99457886047091
 21
16.61997260729305
 31
0.0
  0
LINE
  5
267
330
1F
100
AcDbEntity
  8
AM_9
100
AcDbLine
 10
-10.69768798088316
 20
-16.26615183493211
 30
0.0
 11
-10.14201381234898
 21
-13.11476702529304
 31
0.0
  0
LINE
  5
268
330
1F
100
AcDbEntity
  8
AM_9
100
AcDbLine
 10
-10.14201381234929
 20
-13.11476702529314
 30
0.0
 11
-10.2999861498032
 21
-12.68074159524005
 31
0.0
  0
LINE
  5
269
330
1F
100
AcDbEntity
  8
AM_9
100
AcDbLine
 10
-10.99457886047093
 20
-16.61997260728889
 30
0.0
 11
-10.69768798088345
 21
-16.26615183493205
 31
0.0
  0
LINE
  5
26A
330
1F
100
AcDbEntity
  8
AM_9
100
AcDbLine
 10
-11.00000000000007
 20
-16.60507814884487
 30
0.0
 11
-10.99457886047093
 21
-16.61997260728889
 31
0.0
  0
LINE
  5
26B
330
1F
100
AcDbEntity
  8
AM_9
100
AcDbLine
 10
-10.2999861498032
 20
-12.68074159524005
 30
0.0
 11
-10.59687702939064
 21
-13.03456236759685
 31
0.0
  0
LINE
  5
26C
330
1F
100
AcDbEntity
  8
AM_9
100
AcDbLine
 10
-10.2999861498032
 20
-12.68074159524006
 30
0.0
 11
-10.99457886047093
 21
-16.61997260728889
 31
0.0
  0
LINE
  5
26D
330
1F
100
AcDbEntity
  8
AM_9
100
AcDbLine
 10
-10.59687702939062
 20
-13.03456236759682
 30
0.0
 11
-11.00000000000007
 21
-15.32078634188691
 31
0.0
  0
LWPOLYLINE
  5
26E
330
1F
100
AcDbEntity
  8
AM_9
100
AcDbPolyline
 90
        7
 70
     0
 43
0.0
 10
-8.900000000000436
 20
6.108383119659402
 10
-8.899983288103098
 20
6.107311884018015
 10
-8.880194578571476
 20
6.071849785967462
 10
-8.831997881489418
 20
6.043173869326083
 10
-8.76693706063872
 20
6.022560639726629
 10
-8.688587062112063
 20
6.009430052080226
 10
-8.600000000000414
 20
6.004710821878908
  0
ARC
  5
26F
330
1F
100
AcDbEntity
  8
AM_9
100
AcDbCircle
 10
-8.600000000000414
 20
8.250000000001691
 30
0.0
 40
0.3000000000000007
100
AcDbArc
 50
180.0
 51
269.9999999999997
  0
LINE
  5
270
330
1F
100
AcDbEntity
  8
AM_9
100
AcDbLine
 10
-6.013567913875749
 20
13.82280558659292
 30
0.0
 11
-5.45706334227647
 21
13.43313689051093
 31
0.0
  0
LINE
  5
271
330
1F
100
AcDbEntity
  8
AM_9
100
AcDbLine
 10
-6.186385688477574
 20
17.56932945316217
 30
0.0
 11
-6.576054384559553
 21
17.01282488156289
 31
0.0
  0
LINE
  5
272
330
1F
100
AcDbEntity
  8
AM_9
100
AcDbLine
 10
-6.01356791387618
 20
13.82280558659303
 30
0.0
 11
-6.576054384559951
 21
17.01282488156281
 31
0.0
  0
LINE
  5
273
330
1F
100
AcDbEntity
  8
AM_9
100
AcDbLine
 10
-6.576054384559968
 20
-17.01282488155866
 30
0.0
 11
-6.013567913876192
 21
-13.82280558658888
 31
0.0
  0
LINE
  5
274
330
1F
100
AcDbEntity
  8
AM_9
100
AcDbLine
 10
-6.576054384559579
 20
-17.01282488155874
 30
0.0
 11
-6.186385688477602
 21
-17.56932945315802
 31
0.0
  0
LINE
  5
275
330
1F
100
AcDbEntity
  8
AM_9
100
AcDbLine
 10
-5.457063342276497
 20
-13.43313689050681
 30
0.0
 11
-6.013567913875774
 21
-13.82280558658879
 31
0.0
  0
LINE
  5
276
330
1F
100
AcDbEntity
  8
AM_9
100
AcDbLine
 10
-8.600000000000385
 20
6.354555622368724
 30
0.0
 11
-7.300000000000417
 21
6.354555622368752
 31
0.0
  0
LWPOLYLINE
  5
277
330
1F
100
AcDbEntity
  8
AM_9
100
AcDbPolyline
 90
        7
 70
     0
 43
0.0
 10
-8.600000000000385
 20
7.749250910030633
 10
-8.688587062112035
 20
7.760452908476712
 10
-8.766937060638663
 20
7.79168762212272
 10
-8.83199788148939
 20
7.840921228898942
 10
-8.880194578571448
 20
7.909821590567106
 10
-8.89998328810307
 20
7.995695833988584
 10
-8.900000000000407
 20
7.998301548490433
  0
LINE
  5
278
330
1F
100
AcDbEntity
  8
AM_9
100
AcDbLine
 10
-11.50000000000005
 20
12.00000000000203
 30
0.0
 11
-11.00000000000005
 21
12.00000000000203
 31
0.0
  0
LINE
  5
279
330
1F
100
AcDbEntity
  8
AM_9
100
AcDbLine
 10
-11.00000000000005
 20
17.00000000000203
 30
0.0
 11
-11.50000000000005
 21
17.00000000000203
 31
0.0
  0
LINE
  5
27A
330
1F
100
AcDbEntity
  8
AM_9
100
AcDbLine
 10
-11.00000000000005
 20
12.00000000000203
 30
0.0
 11
-11.00000000000005
 21
17.00000000000203
 31
0.0
  0
LINE
  5
27B
330
1F
100
AcDbEntity
  8
AM_9
100
AcDbLine
 10
-11.00000000000006
 20
-11.99999999999797
 30
0.0
 11
-11.00000000000007
 21
-16.99999999999797
 31
0.0
  0
LINE
  5
27C
330
1F
100
AcDbEntity
  8
AM_9
100
AcDbLine
 10
-11.00000000000006
 20
-11.99999999999797
 30
0.0
 11
-11.50000000000006
 21
-11.99999999999797
 31
0.0
  0
LINE
  5
27D
330
1F
100
AcDbEntity
  8
AM_9
100
AcDbLine
 10
-11.50000000000007
 20
-16.99999999999797
 30
0.0
 11
-11.00000000000007
 21
-16.99999999999797
 31
0.0
  0
LWPOLYLINE
  5
27E
330
1F
100
AcDbEntity
  8
AM_0
100
AcDbPolyline
 90
        6
 70
     0
 43
0.0
 10
0.2553379134263845
 20
13.57792716562042
 10
0.3491658737324738
 20
13.61150512061884
 10
0.4266074446184904
 20
13.6741945528842
 10
0.4795193347744975
 20
13.75930523208807
 10
0.5020578191390762
 20
13.85834181388362
 10
0.4978626833764127
 20
13.93013199193857
  0
LINE
  5
27F
330
1F
100
AcDbEntity
  8
AM_0
100
AcDbLine
 10
0.4978626833764127
 20
13.93013199193857
 30
0.0
 11
-0.423618677984211
 21
19.15611248373767
 31
0.0
  0
LWPOLYLINE
  5
280
330
1F
100
AcDbEntity
  8
AM_9
100
AcDbPolyline
 90
        5
 70
     0
 43
0.0
 10
-0.49694435459075
 20
19.30777018981614
 10
-0.523670163691578
 20
19.33426524618053
 10
-0.6113126315139966
 20
19.38777761335737
 10
-0.7103124689221696
 20
19.40844470910523
 10
-0.7719785598408052
 20
19.40412840345608
  0
LWPOLYLINE
  5
281
330
1F
100
AcDbEntity
  8
AM_0
100
AcDbPolyline
 90
        3
 70
     0
 43
0.0
 10
-0.423618677984211
 20
19.15611248373767
 10
-0.458418255533749
 20
19.25371932872556
 10
-0.49694435459075
 20
19.30777018981614
  0
LWPOLYLINE
  5
282
330
1F
100
AcDbEntity
  8
AM_0
100
AcDbPolyline
 90
        6
 70
     0
 43
0.0
 10
0.2553379134263706
 20
-13.57792716561629
 10
0.3491658737324599
 20
-13.61150512061471
 10
0.4266074446184765
 20
-13.67419455288006
 10
0.4795193347744837
 20
-13.75930523208394
 10
0.5020578191390623
 20
-13.85834181387949
 10
0.497862683376038
 20
-13.93013199193435
  0
LWPOLYLINE
  5
283
330
1F
100
AcDbEntity
  8
AM_9
100
AcDbPolyline
 90
        6
 70
     0
 43
0.0
 10
-0.4236186779838918
 20
-19.15611248373361
 10
-0.4584182555337767
 20
-19.25371932872141
 10
-0.5236701636916058
 20
-19.33426524617639
 10
-0.6113126315140105
 20
-19.38777761335323
 10
-0.7103124689221835
 20
-19.40844470910109
 10
-0.7719785598408607
 20
-19.40412840345157
  0
LINE
  5
284
330
1F
100
AcDbEntity
  8
AM_9
100
AcDbLine
 10
-0.0228906057930524
 20
-16.88347065330535
 30
0.0
 11
-0.4236186779838918
 21
-19.15611248373361
 31
0.0
  0
LINE
  5
285
330
1F
100
AcDbEntity
  8
AM_0
100
AcDbLine
 10
0.497862683376038
 20
-13.93013199193435
 30
0.0
 11
-0.0228906057930524
 21
-16.88347065330535
 31
0.0
  0
LINE
  5
286
330
1F
100
AcDbEntity
  8
AM_9
100
AcDbLine
 10
-0.7719785598408607
 20
-19.40412840345157
 30
0.0
 11
-1.461343986950053
 21
-19.28257467908462
 31
0.0
  0
LINE
  5
288
330
1F
100
AcDbEntity
  8
AM_4
100
AcDbLine
 10
-0.0000000000000638
 20
-15.02602043189229
 30
0.0
 11
0.2553379134263706
 21
-13.57792716561629
 31
0.0
  0
LINE
  5
289
330
1F
100
AcDbEntity
  8
AM_9
100
AcDbLine
 10
-0.7719785598408607
 20
-19.40412840345157
 30
0.0
 11
-0.0000000000000638
 21
-15.02602043189229
 31
0.0
  0
LINE
  5
28A
330
1F
100
AcDbEntity
  8
AM_0
100
AcDbLine
 10
-0.0000000000000705
 20
-13.53290420228143
 30
0.0
 11
0.2553379134263706
 21
-13.57792716561629
 31
0.0
  0
LINE
  5
28B
330
1F
100
AcDbEntity
  8
AM_9
100
AcDbLine
 10
-0.4340275136820725
 20
-13.45637344124948
 30
0.0
 11
-0.0000000000000705
 21
-13.53290420228143
 31
0.0
  0
LINE
  5
28C
330
1F
100
AcDbEntity
  8
AM_9
100
AcDbLine
 10
-0.4267412173152703
 20
-13.41505080113045
 30
0.0
 11
-1.468630283316855
 21
-19.3238973192037
 31
0.0
  0
LINE
  5
28D
330
1F
100
AcDbEntity
  8
AM_9
100
AcDbLine
 10
-2.650399586931854
 20
-19.11551950600333
 30
0.0
 11
-1.468630283316875
 21
-19.32389731920371
 31
0.0
  0
LINE
  5
28E
330
1F
100
AcDbEntity
  8
AM_9
100
AcDbLine
 10
-0.4267412173152703
 20
-13.41505080113047
 30
0.0
 11
-1.608510520930269
 21
-13.20667298793009
 31
0.0
  0
LINE
  5
28F
330
1F
100
AcDbEntity
  8
AM_0
100
AcDbLine
 10
-0.0000000000000594
 20
13.53290420228559
 30
0.0
 11
0.2553379134263845
 21
13.57792716562042
 31
0.0
  0
LINE
  5
290
330
1F
100
AcDbEntity
  8
AM_9
100
AcDbLine
 10
-0.4340275136820587
 20
13.45637344125364
 30
0.0
 11
-0.0000000000000594
 21
13.53290420228559
 31
0.0
  0
LINE
  5
291
330
1F
100
AcDbEntity
  8
AM_4
100
AcDbLine
 10
-0.0000000000000345
 20
15.02602043189632
 30
0.0
 11
0.2553379134263845
 21
13.57792716562042
 31
0.0
  0
LINE
  5
292
330
1F
100
AcDbEntity
  8
AM_9
100
AcDbLine
 10
-0.2245020130042165
 20
16.29923461671453
 30
0.0
 11
-0.0000000000000345
 21
15.02602043189632
 31
0.0
  0
LINE
  5
293
330
1F
100
AcDbEntity
  8
AM_4
100
AcDbLine
 10
-0.5000000000000412
 20
17.86166134170523
 30
0.0
 11
-0.2245020130042165
 21
16.29923461671453
 31
0.0
  0
LINE
  5
294
330
1F
100
AcDbEntity
  8
AM_9
100
AcDbLine
 10
-0.7719785598408052
 20
19.40412840345608
 30
0.0
 11
-0.5000000000000412
 21
17.86166134170523
 31
0.0
  0
LINE
  5
295
330
1F
100
AcDbEntity
  8
AM_9
100
AcDbLine
 10
-0.7719785598408052
 20
19.40412840345608
 30
0.0
 11
-1.461343986950012
 21
19.28257467908866
 31
0.0
  0
LINE
  5
296
330
1F
100
AcDbEntity
  8
AM_9
100
AcDbLine
 10
-0.4267412173152613
 20
13.4150508011346
 30
0.0
 11
-1.468630283316837
 21
19.32389731920785
 31
0.0
  0
LINE
  5
297
330
1F
100
AcDbEntity
  8
AM_9
100
AcDbLine
 10
-1.468630283316835
 20
19.32389731920787
 30
0.0
 11
-2.650399586931833
 21
19.11551950600749
 31
0.0
  0
LINE
  5
298
330
1F
100
AcDbEntity
  8
AM_9
100
AcDbLine
 10
-1.608510520930257
 20
13.20667298793424
 30
0.0
 11
-0.4267412173152561
 21
13.41505080113462
 31
0.0
  0
LINE
  5
299
330
1F
100
AcDbEntity
  8
AM_9
100
AcDbLine
 10
-2.893747459534757
 20
18.76798272680378
 30
0.0
 11
-1.956047300133339
 21
13.45002086053786
 31
0.0
  0
LINE
  5
29A
330
1F
100
AcDbEntity
  8
AM_9
100
AcDbLine
 10
-1.608510520930269
 20
13.2066729879343
 30
0.0
 11
-2.650399586931844
 21
19.11551950600755
 31
0.0
  0
ARC
  5
29B
330
1F
100
AcDbEntity
  8
AM_9
100
AcDbCircle
 10
-1.660604974230347
 20
13.50211531383797
 30
0.0
 40
0.3000000000000012
100
AcDbArc
 50
190.0000000000002
 51
279.9999999999998
  0
ARC
  5
29C
330
1F
100
AcDbEntity
  8
AM_9
100
AcDbCircle
 10
-2.598305133631769
 20
18.82007718010389
 30
0.0
 40
0.2999999999999978
100
AcDbArc
 50
99.9999999999993
 51
189.9999999999994
  0
LINE
  5
29D
330
1F
100
AcDbEntity
  8
AM_9
100
AcDbLine
 10
-2.893747459534775
 20
-18.76798272679963
 30
0.0
 11
-1.956047300133349
 21
-13.45002086053371
 31
0.0
  0
LINE
  5
29E
330
1F
100
AcDbEntity
  8
AM_9
100
AcDbLine
 10
-1.608510520930278
 20
-13.20667298793014
 30
0.0
 11
-2.650399586931862
 21
-19.11551950600339
 31
0.0
  0
ARC
  5
29F
330
1F
100
AcDbEntity
  8
AM_9
100
AcDbCircle
 10
-2.598305133631785
 20
-18.82007718009973
 30
0.0
 40
0.299999999999999
100
AcDbArc
 50
169.9999999999994
 51
260.0000000000001
  0
ARC
  5
2A0
330
1F
100
AcDbEntity
  8
AM_9
100
AcDbCircle
 10
-1.660604974230355
 20
-13.50211531383381
 30
0.0
 40
0.3
100
AcDbArc
 50
80.00000000000026
 51
169.9999999999998
  0
LINE
  5
2A1
330
1F
100
AcDbEntity
  8
AM_9
100
AcDbLine
 10
-11.50000000000009
 20
-18.89999999999797
 30
0.0
 11
-6.413191317416675
 21
-18.85560809314818
 31
0.0
  0
LINE
  5
2A2
330
1F
100
AcDbEntity
  8
AM_9
100
AcDbLine
 10
-5.160280896253565
 20
-11.74999999999798
 30
0.0
 11
-6.413191317416675
 21
-18.85560809314818
 31
0.0
  0
LINE
  5
2A3
330
1F
100
AcDbEntity
  8
AM_9
100
AcDbLine
 10
-5.733343583556135
 20
-14.99999999999797
 30
0.0
 11
-0.0000000000000692
 21
-14.99999999999797
 31
0.0
  0
LINE
  5
2A4
330
1F
100
AcDbEntity
  8
AM_9
100
AcDbLine
 10
-0.0000000000000633
 20
-11.74999999999798
 30
0.0
 11
-5.160280896253565
 21
-11.74999999999798
 31
0.0
  0
LINE
  5
2A5
330
1F
100
AcDbEntity
  8
AM_9
100
AcDbLine
 10
-5.733343583556066
 20
15.00000000000203
 30
0.0
 11
-0.0000000000000553
 21
15.00000000000203
 31
0.0
  0
LINE
  5
2A6
330
1F
100
AcDbEntity
  8
AM_9
100
AcDbLine
 10
-5.160280896253559
 20
11.75000000000202
 30
0.0
 11
-0.0000000000000616
 21
11.75000000000202
 31
0.0
  0
LINE
  5
2A7
330
1F
100
AcDbEntity
  8
AM_9
100
AcDbLine
 10
-5.160280896253559
 20
11.75000000000203
 30
0.0
 11
-6.413191317416453
 21
18.85560809315243
 31
0.0
  0
LINE
  5
2A8
330
1F
100
AcDbEntity
  8
AM_9
100
AcDbLine
 10
-11.50000000000004
 20
18.90000000000213
 30
0.0
 11
-6.413191317417049
 21
18.85560809315234
 31
0.0
  0
LINE
  5
2A9
330
1F
100
AcDbEntity
  8
AM_9
100
AcDbLine
 10
-7.500000000000423
 20
-9.001958965461284
 30
0.0
 11
-4.50000000000042
 21
-9.001958965461368
 31
0.0
  0
LINE
  5
2AA
330
1F
100
AcDbEntity
  8
AM_9
100
AcDbLine
 10
-7.500000000000423
 20
-7.15639578870389
 30
0.0
 11
-4.50000000000042
 21
-7.156395788703876
 31
0.0
  0
LINE
  5
2AB
330
1F
100
AcDbEntity
  8
AM_9
100
AcDbLine
 10
-7.500000000000412
 20
-9.949999999998312
 30
0.0
 11
-4.500000000000427
 21
-9.949999999998312
 31
0.0
  0
LINE
  5
2AC
330
1F
100
AcDbEntity
  8
AM_9
100
AcDbLine
 10
-65.32872080858215
 20
-4.249999999998257
 30
0.0
 11
-62.32872080858215
 21
-4.249999999998257
 31
0.0
  0
LINE
  5
2AD
330
1F
100
AcDbEntity
  8
AM_9
100
AcDbLine
 10
-62.32872080858215
 20
4.250000000001943
 30
0.0
 11
-65.32872080858215
 21
4.250000000001942
 31
0.0
  0
LINE
  5
2AE
330
1F
100
AcDbEntity
  8
AM_9
100
AcDbLine
 10
-65.32872080858223
 20
-4.571999999998586
 30
0.0
 11
-55.36872080858068
 21
-4.571999999998586
 31
0.0
  0
LINE
  5
2AF
330
1F
100
AcDbEntity
  8
AM_0
100
AcDbLine
 10
-65.52872080858168
 20
-4.571999999998586
 30
0.0
 11
-65.32872080858223
 21
-4.571999999998586
 31
0.0
  0
LINE
  5
2B0
330
1F
100
AcDbEntity
  8
AM_0
100
AcDbLine
 10
-65.32872080858225
 20
4.572000000001695
 30
0.0
 11
-65.52872080858168
 21
4.572000000001695
 31
0.0
  0
LINE
  5
2B1
330
1F
100
AcDbEntity
  8
AM_9
100
AcDbLine
 10
-55.36872080858068
 20
4.572000000001695
 30
0.0
 11
-65.32872080858225
 21
4.572000000001695
 31
0.0
  0
LINE
  5
2B2
330
1F
100
AcDbEntity
  8
AM_9
100
AcDbLine
 10
-55.36872080858068
 20
4.572000000001695
 30
0.0
 11
-55.36872080858068
 21
-4.571999999998586
 31
0.0
  0
LWPOLYLINE
  5
2B3
330
1F
100
AcDbEntity
  8
AM_9
100
AcDbPolyline
 90
        7
 70
     0
 43
0.0
 10
-8.900000000000407
 20
6.584662963308355
 10
-8.899981249348377
 20
6.5821145762784
 10
-8.882745399809156
 20
6.508243191208532
 10
-8.835924014163304
 20
6.44305341045058
 10
-8.770298686597206
 20
6.395551616320841
 10
-8.69033324081997
 20
6.365334986273563
 10
-8.600000000000385
 20
6.354555622368724
  0
LINE
  5
2B4
330
1F
100
AcDbEntity
  8
AM_9
100
AcDbLine
 10
9.355846515146899
 20
-12.93858559453917
 30
0.0
 11
10.54641412261867
 21
-8.495326793609454
 31
0.0
  0
LINE
  5
2B5
330
1F
100
AcDbEntity
  8
AM_9
100
AcDbLine
 10
13.21608230259716
 20
-14.17998789246205
 30
0.0
 11
18.90000000000186
 21
-15.70298904932639
 31
0.0
  0
LINE
  5
2B6
330
1F
100
AcDbEntity
  8
AM_9
100
AcDbLine
 10
14.51017752810982
 20
-9.350358761016754
 30
0.0
 11
13.21608230259716
 21
-14.17998789246205
 31
0.0
  0
LINE
  5
2B7
330
1F
100
AcDbEntity
  8
AM_9
100
AcDbLine
 10
11.70248880188771
 20
-14.03324078138074
 30
0.0
 11
10.68826668428405
 21
-13.7614807840233
 31
0.0
  0
LINE
  5
2B8
330
1F
100
AcDbEntity
  8
AM_9
100
AcDbLine
 10
24.50000000000188
 20
-6.799999999999265
 30
0.0
 11
26.00000000000185
 21
-6.799999999999279
 31
0.0
  0
LINE
  5
2B9
330
1F
100
AcDbEntity
  8
AM_9
100
AcDbLine
 10
10.54641412261867
 20
8.495326793610674
 30
0.0
 11
9.355846515146926
 21
12.93858559454024
 31
0.0
  0
LINE
  5
2BA
330
1F
100
AcDbEntity
  8
AM_9
100
AcDbLine
 10
24.70000000000191
 20
4.000000000000711
 30
0.0
 11
24.70000000000194
 21
7.000000000000714
 31
0.0
  0
LINE
  5
2BB
330
1F
100
AcDbEntity
  8
AM_9
100
AcDbLine
 10
25.00000000000188
 20
2.200000000000706
 30
0.0
 11
25.00000000000188
 21
4.000000000000711
 31
0.0
  0
LINE
  5
2BC
330
1F
100
AcDbEntity
  8
AM_9
100
AcDbLine
 10
25.00000000000187
 20
-0.3999999999992898
 30
0.0
 11
25.00000000000187
 21
0.4000000000007192
 31
0.0
  0
LINE
  5
2BD
330
1F
100
AcDbEntity
  8
AM_9
100
AcDbLine
 10
25.00000000000185
 20
-3.999999999999268
 30
0.0
 11
25.00000000000186
 21
-2.1999999999993
 31
0.0
  0
LINE
  5
2BE
330
1F
100
AcDbEntity
  8
AM_9
100
AcDbLine
 10
25.00000000000188
 20
4.000000000000711
 30
0.0
 11
24.70000000000191
 21
4.000000000000711
 31
0.0
  0
LINE
  5
2BF
330
1F
100
AcDbEntity
  8
AM_9
100
AcDbLine
 10
24.70000000000186
 20
-3.999999999999268
 30
0.0
 11
25.00000000000185
 21
-3.999999999999268
 31
0.0
  0
LINE
  5
2C0
330
1F
100
AcDbEntity
  8
AM_9
100
AcDbLine
 10
24.7000000000018
 20
-6.999999999999298
 30
0.0
 11
24.70000000000186
 21
-3.999999999999268
 31
0.0
  0
LINE
  5
2C1
330
1F
100
AcDbEntity
  8
AM_9
100
AcDbLine
 10
26.00000000000188
 20
6.800000000000653
 30
0.0
 11
24.50000000000185
 21
6.800000000000667
 31
0.0
  0
LINE
  5
2C2
330
1F
100
AcDbEntity
  8
AM_9
100
AcDbLine
 10
14.5101775281099
 20
9.350358761018029
 30
0.0
 11
24.94060346902988
 21
12.14518296860022
 31
0.0
  0
LINE
  5
2C3
330
1F
100
AcDbEntity
  8
AM_9
100
AcDbLine
 10
10.68826668428413
 20
13.76148078402421
 30
0.0
 11
11.70248880188785
 21
14.03324078138185
 31
0.0
  0
LINE
  5
2C4
330
1F
100
AcDbEntity
  8
AM_9
100
AcDbLine
 10
13.2160823025971
 20
14.17998789246332
 30
0.0
 11
14.5101775281099
 21
9.350358761018029
 31
0.0
  0
LINE
  5
2C5
330
1F
100
AcDbEntity
  8
AM_9
100
AcDbLine
 10
1.000000000001934
 20
-1.999999999999253
 30
0.0
 11
1.000000000001944
 21
-2.599999999999242
 31
0.0
  0
LINE
  5
2C6
330
1F
100
AcDbEntity
  8
AM_9
100
AcDbLine
 10
1.000000000001861
 20
2.600000000000644
 30
0.0
 11
1.00000000000187
 21
2.000000000000737
 31
0.0
  0
LINE
  5
2C7
330
1F
100
AcDbEntity
  8
AM_9
100
AcDbLine
 10
-8.600000000000385
 20
-4.610015534213599
 30
0.0
 11
-7.300000000000417
 21
-4.610015534213599
 31
0.0
  0
LINE
  5
2C8
330
1F
100
AcDbEntity
  8
AM_9
100
AcDbLine
 10
-8.600000000000385
 20
-6.004710821875495
 30
0.0
 11
-7.300000000000417
 21
-6.004710821875523
 31
0.0
  0
LINE
  5
2C9
330
1F
100
AcDbEntity
  8
AM_9
100
AcDbLine
 10
-8.600000000000414
 20
-7.749250910027233
 30
0.0
 11
-7.300000000000445
 21
-7.749250910027247
 31
0.0
  0
LINE
  5
2CA
330
1F
100
AcDbEntity
  8
AM_9
100
AcDbLine
 10
-8.600000000000392
 20
-7.949999999998325
 30
0.0
 11
-7.300000000000445
 21
-7.949999999998325
 31
0.0
  0
LINE
  5
2CB
330
1F
100
AcDbEntity
  8
AM_9
100
AcDbLine
 10
19.3000000000019
 20
-2.549999999999248
 30
0.0
 11
19.30000000000193
 21
2.550000000000746
 31
0.0
  0
LINE
  5
2CC
330
1F
100
AcDbEntity
  8
AM_9
100
AcDbLine
 10
1.200000000001894
 20
2.550000000000746
 30
0.0
 11
1.200000000001866
 21
-2.549999999999248
 31
0.0
  0
LINE
  5
2CD
330
1F
100
AcDbEntity
  8
AM_9
100
AcDbLine
 10
9.200000000001902
 20
-2.249999999999253
 30
0.0
 11
11.30000000000189
 21
-2.249999999999253
 31
0.0
  0
LINE
  5
2CE
330
1F
100
AcDbEntity
  8
AM_9
100
AcDbLine
 10
9.200000000001928
 20
2.250000000000738
 30
0.0
 11
9.200000000001902
 21
-2.249999999999253
 31
0.0
  0
LINE
  5
2CF
330
1F
100
AcDbEntity
  8
AM_9
100
AcDbLine
 10
11.30000000000189
 20
-2.249999999999253
 30
0.0
 11
11.30000000000192
 21
2.250000000000738
 31
0.0
  0
LINE
  5
2D0
330
1F
100
AcDbEntity
  8
AM_9
100
AcDbLine
 10
11.30000000000192
 20
2.250000000000738
 30
0.0
 11
9.200000000001928
 21
2.250000000000738
 31
0.0
  0
LINE
  5
2D1
330
1F
100
AcDbEntity
  8
AM_9
100
AcDbLine
 10
18.30000000000187
 20
2.550000000000746
 30
0.0
 11
18.30000000000184
 21
-2.549999999999248
 31
0.0
  0
LINE
  5
2D2
330
1F
100
AcDbEntity
  8
AM_9
100
AcDbLine
 10
-0.8000000000000365
 20
18.73047931381152
 30
0.0
 11
-0.5000000000000417
 21
18.73047931381152
 31
0.0
  0
LINE
  5
2D3
330
1F
100
AcDbEntity
  8
AM_9
100
AcDbLine
 10
-0.8000000000000365
 20
18.74289043136552
 30
0.0
 11
-0.5000000000000417
 21
18.74289043136552
 31
0.0
  0
LWPOLYLINE
  5
2D4
330
1F
100
AcDbEntity
  8
AM_9
100
AcDbPolyline
 90
        8
 70
     0
 43
0.0
 10
-8.900000000000407
 20
-6.108383119655961
 10
-8.89998328810304
 20
-6.10731188401438
 10
-8.88206769089736
 20
-6.073576693748834
 10
-8.835049389524979
 20
-6.044488630919595
 10
-8.770571745118582
 20
-6.023427304600551
 10
-8.695068521309885
 20
-6.010164427645403
 10
-8.609999285517118
 20
-6.0047696811628
 10
-8.600000000000385
 20
-6.004710821875495
  0
LWPOLYLINE
  5
2D5
330
1F
100
AcDbEntity
  8
AM_9
100
AcDbPolyline
 90
        8
 70
     0
 43
0.0
 10
-8.900000000000436
 20
-7.998301548487061
 10
-8.89998328810304
 20
-7.995695833985087
 10
-8.882504077922487
 20
-7.914990215940554
 10
-8.835771198458907
 20
-7.844829936854827
 10
-8.771462115346768
 20
-7.794268505090948
 10
-8.696080330352157
 20
-7.762481827495102
 10
-8.61113633669569
 20
-7.749424119819145
 10
-8.600000000000414
 20
-7.749250910027233
  0
ARC
  5
2D6
330
1F
100
AcDbEntity
  8
AM_9
100
AcDbCircle
 10
-8.600000000000412
 20
-8.24999999999833
 30
0.0
 40
0.2999999999999989
100
AcDbArc
 50
90.0
 51
180.0000000000003
  0
LINE
  5
2D7
330
1F
100
AcDbEntity
  8
AM_9
100
AcDbLine
 10
-6.700000000000081
 20
-8.488688441041822
 30
0.0
 11
-7.500000000000076
 21
-8.488688441041822
 31
0.0
  0
LINE
  5
2D8
330
1F
100
AcDbEntity
  8
AM_9
100
AcDbLine
 10
4.250000000001891
 20
-1.203999999999247
 30
0.0
 11
4.250000000001891
 21
-2.549999999999233
 31
0.0
  0
LINE
  5
2D9
330
1F
100
AcDbEntity
  8
AM_9
100
AcDbLine
 10
6.250000000001893
 20
-1.190602540377506
 30
0.0
 11
6.250000000001893
 21
-2.549999999999233
 31
0.0
  0
LINE
  5
2DA
330
1F
100
AcDbEntity
  8
AM_9
100
AcDbLine
 10
4.250000000001918
 20
2.55000000000076
 30
0.0
 11
4.250000000001891
 21
0.0960000000007621
 31
0.0
  0
LINE
  5
2DB
330
1F
100
AcDbEntity
  8
AM_9
100
AcDbLine
 10
6.25000000000192
 20
2.55000000000076
 30
0.0
 11
6.250000000001893
 21
0.1093974596221708
 31
0.0
  0
LINE
  5
2DC
330
1F
100
AcDbEntity
  8
AM_9
100
AcDbLine
 10
14.25000000000184
 20
-1.190602540377256
 30
0.0
 11
14.25000000000184
 21
-2.549999999999261
 31
0.0
  0
LINE
  5
2DD
330
1F
100
AcDbEntity
  8
AM_9
100
AcDbLine
 10
16.25000000000185
 20
-1.203999999999261
 30
0.0
 11
16.25000000000185
 21
-2.549999999999261
 31
0.0
  0
LINE
  5
2DE
330
1F
100
AcDbEntity
  8
AM_9
100
AcDbLine
 10
16.25000000000188
 20
2.550000000000732
 30
0.0
 11
16.25000000000185
 21
0.0960000000007483
 31
0.0
  0
LINE
  5
2DF
330
1F
100
AcDbEntity
  8
AM_9
100
AcDbLine
 10
14.25000000000187
 20
2.550000000000732
 30
0.0
 11
14.25000000000184
 21
0.1093974596222402
 31
0.0
  0
LINE
  5
2E0
330
1F
100
AcDbEntity
  8
AM_9
100
AcDbLine
 10
-0.8000000000000365
 20
18.78640098758651
 30
0.0
 11
-0.5000000000000417
 21
18.78640098758652
 31
0.0
  0
LINE
  5
2E1
330
1F
100
AcDbEntity
  8
AM_9
100
AcDbLine
 10
-0.8000000000000365
 20
18.85482926555551
 30
0.0
 11
-0.5000000000000417
 21
18.85482926555551
 31
0.0
  0
LINE
  5
2E2
330
1F
100
AcDbEntity
  8
AM_9
100
AcDbLine
 10
-1.000000000000056
 20
12.93492155807972
 30
0.0
 11
-11.50000000000007
 21
12.64820767215723
 31
0.0
  0
LINE
  5
2E3
330
1F
100
AcDbEntity
  8
AM_9
100
AcDbLine
 10
-1.00000000000007
 20
-12.93492155857706
 30
0.0
 11
-11.50000000000007
 21
-12.64820767215308
 31
0.0
  0
LINE
  5
2E4
330
1F
100
AcDbEntity
  8
AM_9
100
AcDbLine
 10
-0.8000000000000365
 20
18.94817532487852
 30
0.0
 11
-0.5000000000000417
 21
18.94817532487852
 31
0.0
  0
LINE
  5
2E5
330
1F
100
AcDbEntity
  8
AM_9
100
AcDbLine
 10
18.20245470957688
 20
-8.523704650253276
 30
0.0
 11
15.74367378110325
 21
-17.69999999999926
 31
0.0
  0
LINE
  5
2E6
330
1F
100
AcDbEntity
  8
AM_9
100
AcDbLine
 10
18.23085019646081
 20
-8.794395727186238
 30
0.0
 11
17.84262162880687
 21
-10.24328446662039
 31
0.0
  0
LINE
  5
2E7
330
1F
100
AcDbEntity
  8
AM_9
100
AcDbLine
 10
14.51017752810982
 20
-9.350358761016754
 30
0.0
 11
24.9406034690296
 21
-12.14518296859868
 31
0.0
  0
LINE
  5
2E8
330
1F
100
AcDbEntity
  8
AM_9
100
AcDbLine
 10
24.9406034690296
 20
-12.14518296859868
 30
0.0
 11
20.38578643762892
 21
-16.69999999999924
 31
0.0
  0
LINE
  5
2E9
330
1F
100
AcDbEntity
  8
AM_9
100
AcDbLine
 10
20.38578643762892
 20
-16.69999999999924
 30
0.0
 11
18.90000000000186
 21
-16.69999999999924
 31
0.0
  0
LINE
  5
2EA
330
1F
100
AcDbEntity
  8
AM_9
100
AcDbLine
 10
18.90000000000186
 20
-16.69999999999924
 30
0.0
 11
18.90000000000186
 21
-15.70298904932639
 31
0.0
  0
LINE
  5
2EB
330
1F
100
AcDbEntity
  8
AM_9
100
AcDbLine
 10
16.54852640329432
 20
-15.07291359806541
 30
0.0
 11
15.84460072344926
 21
-17.69999999999924
 31
0.0
  0
LINE
  5
2EC
330
1F
100
AcDbEntity
  8
AM_9
100
AcDbLine
 10
18.20245470957699
 20
8.523704650254551
 30
0.0
 11
15.74367378110356
 21
17.70000000000091
 31
0.0
  0
LINE
  5
2ED
330
1F
100
AcDbEntity
  8
AM_9
100
AcDbLine
 10
17.84262162880693
 20
10.24328446662169
 30
0.0
 11
18.23085019646081
 21
8.794395727188112
 31
0.0
  0
LINE
  5
2EE
330
1F
100
AcDbEntity
  8
AM_9
100
AcDbLine
 10
15.84460072344912
 20
17.70000000000054
 30
0.0
 11
16.54852640329413
 21
15.07291359806683
 31
0.0
  0
LINE
  5
2EF
330
1F
100
AcDbEntity
  8
AM_9
100
AcDbLine
 10
13.2160823025971
 20
14.17998789246332
 30
0.0
 11
18.90000000000192
 21
15.70298904932783
 31
0.0
  0
LINE
  5
2F0
330
1F
100
AcDbEntity
  8
AM_9
100
AcDbLine
 10
18.90000000000189
 20
15.70298904932794
 30
0.0
 11
18.90000000000189
 21
16.70000000000065
 31
0.0
  0
LINE
  5
2F1
330
1F
100
AcDbEntity
  8
AM_9
100
AcDbLine
 10
18.90000000000189
 20
16.70000000000065
 30
0.0
 11
20.38578643762889
 21
16.70000000000065
 31
0.0
  0
LINE
  5
2F2
330
1F
100
AcDbEntity
  8
AM_9
100
AcDbLine
 10
20.38578643762911
 20
16.70000000000087
 30
0.0
 11
24.94060346902996
 21
12.14518296860015
 31
0.0
  0
LINE
  5
2F3
330
1F
100
AcDbEntity
  8
AM_9
100
AcDbLine
 10
-0.8000000000000365
 20
19.09173168130852
 30
0.0
 11
-0.5000000000000417
 21
19.09173168130852
 31
0.0
  0
LINE
  5
2F4
330
1F
100
AcDbEntity
  8
AM_9
100
AcDbLine
 10
-0.8000000000000365
 20
19.27552254386852
 30
0.0
 11
-0.5000000000000417
 21
19.27552254386851
 31
0.0
  0
LINE
  5
2F5
330
1F
100
AcDbEntity
  8
AM_9
100
AcDbLine
 10
-0.8000000000000363
 20
19.49954794236151
 30
0.0
 11
-0.5000000000000416
 21
19.49954794236151
 31
0.0
  0
LINE
  5
2F6
330
1F
100
AcDbEntity
  8
AM_9
100
AcDbLine
 10
-8.600000000000385
 20
4.78140931370058
 30
0.0
 11
-7.300000000000417
 21
4.781409313700538
 31
0.0
  0
LINE
  5
2F7
330
1F
100
AcDbEntity
  8
AM_9
100
AcDbLine
 10
-8.600000000000385
 20
4.446798554125969
 30
0.0
 11
-7.300000000000417
 21
4.446798554125983
 31
0.0
  0
LINE
  5
2F8
330
1F
100
AcDbEntity
  8
AM_9
100
AcDbLine
 10
4.200000000001841
 20
0.0960000000007621
 30
0.0
 11
6.200000000001871
 21
0.0960000000007483
 31
0.0
  0
LINE
  5
2F9
330
1F
100
AcDbEntity
  8
AM_9
100
AcDbLine
 10
6.200000000001871
 20
-1.203999999999247
 30
0.0
 11
4.200000000001869
 21
-1.203999999999233
 31
0.0
  0
LINE
  5
2FA
330
1F
100
AcDbEntity
  8
AM_9
100
AcDbLine
 10
20.23000000000189
 20
-1.749999999999266
 30
0.0
 11
19.43000000000189
 21
-2.549999999999289
 31
0.0
  0
LINE
  5
2FB
330
1F
100
AcDbEntity
  8
AM_9
100
AcDbLine
 10
19.43000000000189
 20
2.550000000000732
 30
0.0
 11
20.23000000000189
 21
1.750000000000695
 31
0.0
  0
LINE
  5
2FC
330
1F
100
AcDbEntity
  8
AM_9
100
AcDbLine
 10
6.200000000001871
 20
0.0960000000007483
 30
0.0
 11
9.200000000001902
 21
0.8998475772941383
 31
0.0
  0
LINE
  5
2FD
330
1F
100
AcDbEntity
  8
AM_9
100
AcDbLine
 10
9.200000000001902
 20
0.8998475772940412
 30
0.0
 11
11.30000000000189
 21
0.8998475772940273
 31
0.0
  0
LINE
  5
2FE
330
1F
100
AcDbEntity
  8
AM_9
100
AcDbLine
 10
11.30000000000189
 20
0.8998475772940412
 30
0.0
 11
14.30000000000187
 21
0.0960000000007483
 31
0.0
  0
LINE
  5
2FF
330
1F
100
AcDbEntity
  8
AM_9
100
AcDbLine
 10
14.30000000000187
 20
0.0960000000007483
 30
0.0
 11
16.30000000000187
 21
0.0960000000007483
 31
0.0
  0
LINE
  5
300
330
1F
100
AcDbEntity
  8
AM_9
100
AcDbLine
 10
16.30000000000187
 20
0.0960000000007483
 30
0.0
 11
16.30000000000187
 21
-1.203999999999247
 31
0.0
  0
LINE
  5
301
330
1F
100
AcDbEntity
  8
AM_9
100
AcDbLine
 10
16.30000000000187
 20
-1.203999999999247
 30
0.0
 11
14.30000000000187
 21
-1.203999999999247
 31
0.0
  0
LINE
  5
302
330
1F
100
AcDbEntity
  8
AM_9
100
AcDbLine
 10
14.30000000000187
 20
-1.203999999999247
 30
0.0
 11
11.30000000000195
 21
-0.400152422705885
 31
0.0
  0
LINE
  5
303
330
1F
100
AcDbEntity
  8
AM_9
100
AcDbLine
 10
11.30000000000186
 20
-0.4001524227062597
 30
0.0
 11
9.200000000001873
 21
-0.4001524227062597
 31
0.0
  0
LINE
  5
304
330
1F
100
AcDbEntity
  8
AM_9
100
AcDbLine
 10
9.200000000001873
 20
-0.4001524227062597
 30
0.0
 11
6.200000000001982
 21
-1.203999999999608
 31
0.0
  0
LINE
  5
305
330
1F
100
AcDbEntity
  8
AM_9
100
AcDbLine
 10
-7.500000000000062
 20
7.904016549441423
 30
0.0
 11
-9.500000000000064
 21
7.904016549441423
 31
0.0
  0
LINE
  5
306
330
1F
100
AcDbEntity
  8
AM_9
100
AcDbLine
 10
-11.50000000000007
 20
17.50142766762933
 30
0.0
 11
-1.000000000000056
 21
17.04298776708993
 31
0.0
  0
LINE
  5
307
330
1F
100
AcDbEntity
  8
AM_9
100
AcDbLine
 10
-11.50000000000008
 20
-17.50142766762515
 30
0.0
 11
-1.000000000000084
 21
-17.04298776708578
 31
0.0
  0
LWPOLYLINE
  5
308
330
1F
100
AcDbEntity
  8
AM_9
100
AcDbPolyline
 90
        7
 70
     0
 43
0.0
 10
-8.900000000000407
 20
4.781261018634131
 10
-8.899983004129558
 20
4.777707568994274
 10
-8.86938835688772
 20
4.634231139833453
 10
-8.795868512573495
 20
4.528042320180018
 10
-8.715973766694196
 20
4.472847748950515
 10
-8.620604550677118
 20
4.447589890525197
 10
-8.600000000000385
 20
4.446798554125969
  0
LINE
  5
309
330
1F
100
AcDbEntity
  8
AM_9
100
AcDbLine
 10
-8.600000000000385
 20
-1.56845425922679
 30
0.0
 11
-7.300000000000417
 21
-1.568454259226776
 31
0.0
  0
LWPOLYLINE
  5
30A
330
1F
100
AcDbEntity
  8
AM_9
100
AcDbPolyline
 90
        7
 70
     0
 43
0.0
 10
-8.900000000000407
 20
-4.694744534473896
 10
-8.899981249348349
 20
-4.693821529567654
 10
-8.877757800814651
 20
-4.663250079329842
 10
-8.81414628869906
 20
-4.635876670470621
 10
-8.721856071886025
 20
-4.617497619106029
 10
-8.623643234946604
 20
-4.610286083076995
 10
-8.600000000000385
 20
-4.610015534213599
  0
LINE
  5
30B
330
1F
100
AcDbEntity
  8
AM_9
100
AcDbLine
 10
-7.500000000000395
 20
7.156395788707262
 30
0.0
 11
-4.500000000000393
 21
7.15639578870729
 31
0.0
  0
LINE
  5
30C
330
1F
100
AcDbEntity
  8
AM_9
100
AcDbLine
 10
-7.500000000000423
 20
9.001958965464754
 30
0.0
 11
-4.50000000000042
 21
9.001958965464892
 31
0.0
  0
LINE
  5
30D
330
1F
100
AcDbEntity
  8
AM_9
100
AcDbLine
 10
-4.500000000000413
 20
9.950000000001669
 30
0.0
 11
-7.500000000000407
 21
9.950000000001669
 31
0.0
  0
LINE
  5
30E
330
1F
100
AcDbEntity
  8
AM_9
100
AcDbLine
 10
-4.500000000000422
 20
9.950000000001669
 30
0.0
 11
-4.500000000000418
 21
-9.949999999998312
 31
0.0
  0
LINE
  5
30F
330
1F
100
AcDbEntity
  8
AM_0
100
AcDbLine
 10
-65.32872080858225
 20
-5.999999999998151
 30
0.0
 11
-63.32872080858236
 21
-6.99999999999825
 31
0.0
  0
LINE
  5
310
330
1F
100
AcDbEntity
  8
AM_0
100
AcDbLine
 10
-63.32872080858236
 20
7.000000000002032
 30
0.0
 11
-65.32872080858225
 21
6.000000000001932
 31
0.0
  0
LINE
  5
311
330
1F
100
AcDbEntity
  8
AM_0
100
AcDbLine
 10
-65.32872080858225
 20
6.00000000000188
 30
0.0
 11
-65.32872080858225
 21
-5.99999999999812
 31
0.0
  0
ARC
  5
312
330
1F
100
AcDbEntity
  8
AM_0
100
AcDbCircle
 10
-56.82872080858235
 20
-6.999999999998709
 30
0.0
 40
1.5
100
AcDbArc
 50
359.9999999999962
 51
179.9999999999963
  0
ARC
  5
313
330
1F
100
AcDbEntity
  8
AM_0
100
AcDbCircle
 10
-56.82872080858235
 20
7.000000000002393
 30
0.0
 40
1.5
100
AcDbArc
 50
180.0000000000037
 51
0.0000000000040033
  0
ARC
  5
314
330
1F
100
AcDbEntity
  8
AM_9
100
AcDbCircle
 10
-56.82872080858235
 20
-6.999999999998708
 30
0.0
 40
2.5
100
AcDbArc
 50
359.9999999999955
 51
179.999999999998
  0
ARC
  5
315
330
1F
100
AcDbEntity
  8
AM_9
100
AcDbCircle
 10
-56.82872080858235
 20
7.000000000002393
 30
0.0
 40
2.5
100
AcDbArc
 50
180.0000000000021
 51
0.00000000000458
  0
LINE
  5
316
330
1F
100
AcDbEntity
  8
AM_0
100
AcDbLine
 10
-90.92872080858172
 20
-5.079999999998416
 30
0.0
 11
-87.40919356760169
 21
-7.111999999998616
 31
0.0
  0
LINE
  5
317
330
1F
100
AcDbEntity
  8
AM_0
100
AcDbLine
 10
-87.40919356760169
 20
7.112000000001725
 30
0.0
 11
-90.92872080858172
 21
5.080000000001524
 31
0.0
  0
LINE
  5
318
330
1F
100
AcDbEntity
  8
AM_0
100
AcDbLine
 10
-90.92872080858172
 20
5.080000000001655
 30
0.0
 11
-90.92872080858172
 21
-5.079999999998546
 31
0.0
  0
LINE
  5
319
330
1F
100
AcDbEntity
  8
AM_0
100
AcDbLine
 10
-65.52872080858168
 20
6.096000000001619
 30
0.0
 11
-81.78472080858168
 21
7.112000000001685
 31
0.0
  0
LINE
  5
31A
330
1F
100
AcDbEntity
  8
AM_0
100
AcDbLine
 10
-81.78472080858168
 20
-7.111999999998576
 30
0.0
 11
-65.52872080858168
 21
-6.095999999998511
 31
0.0
  0
LINE
  5
31B
330
1F
100
AcDbEntity
  8
AM_0
100
AcDbLine
 10
-65.52872080858168
 20
6.096000000001625
 30
0.0
 11
-65.52872080858168
 21
-6.095999999998516
 31
0.0
  0
LINE
  5
31C
330
1F
100
AcDbEntity
  8
AM_0
100
AcDbLine
 10
-87.40919356760169
 20
-7.111999999998566
 30
0.0
 11
-81.78472080858168
 21
-7.111999999998566
 31
0.0
  0
LINE
  5
31D
330
1F
100
AcDbEntity
  8
AM_0
100
AcDbLine
 10
-81.78472080858168
 20
7.112000000001674
 30
0.0
 11
-87.40919356760169
 21
7.112000000001674
 31
0.0
  0
LINE
  5
31E
330
1F
100
AcDbEntity
  8
AM_0
100
AcDbLine
 10
-87.40919356760169
 20
7.112000000001674
 30
0.0
 11
-87.40919356760169
 21
-7.111999999998566
 31
0.0
  0
LINE
  5
31F
330
1F
100
AcDbEntity
  8
AM_0
100
AcDbLine
 10
-81.78472080858168
 20
7.112000000001674
 30
0.0
 11
-81.78472080858168
 21
-7.111999999998566
 31
0.0
  0
LINE
  5
320
330
1F
100
AcDbEntity
  8
AM_9
100
AcDbLine
 10
20.23000000000191
 20
1.750000000000723
 30
0.0
 11
20.23000000000189
 21
-1.749999999999266
 31
0.0
  0
LINE
  5
321
330
1F
100
AcDbEntity
  8
AM_9
100
AcDbLine
 10
17.73000000000191
 20
0.7500000000007223
 30
0.0
 11
20.23000000000191
 21
0.7500000000007223
 31
0.0
  0
LINE
  5
322
330
1F
100
AcDbEntity
  8
AM_9
100
AcDbLine
 10
20.23000000000189
 20
-0.749999999999279
 30
0.0
 11
17.73000000000188
 21
-0.749999999999279
 31
0.0
  0
LINE
  5
323
330
1F
100
AcDbEntity
  8
AM_9
100
AcDbLine
 10
17.73000000000188
 20
-0.749999999999279
 30
0.0
 11
17.73000000000191
 21
0.7500000000007223
 31
0.0
  0
LINE
  5
324
330
1F
100
AcDbEntity
  8
AM_9
100
AcDbLine
 10
-8.600000000000385
 20
-1.233843499652234
 30
0.0
 11
-7.300000000000416
 21
-1.23384349965229
 31
0.0
  0
LWPOLYLINE
  5
325
330
1F
100
AcDbEntity
  8
AM_9
100
AcDbPolyline
 90
        7
 70
     0
 43
0.0
 10
-8.900000000000407
 20
-1.816113034720429
 10
-8.899983004129558
 20
-1.81347017095454
 10
-8.86938835688772
 20
-1.706966109689081
 10
-8.795868512573495
 20
-1.628404936867875
 10
-8.715973766694196
 20
-1.587661379628999
 10
-8.620604550677118
 20
-1.569037535389992
 10
-8.600000000000385
 20
-1.56845425922679
  0
LWPOLYLINE
  5
326
330
1F
100
AcDbEntity
  8
AM_9
100
AcDbPolyline
 90
        8
 70
     0
 43
0.0
 10
-8.900000000000407
 20
5.119990388354187
 10
-8.89998450220636
 20
5.116555138285642
 10
-8.878301656817882
 20
4.993712158008173
 10
-8.829213110862655
 20
4.901694246751326
 10
-8.764532420329319
 20
4.836959430216018
 10
-8.690110177051153
 20
4.797071761069999
 10
-8.606369693944293
 20
4.781485783825021
 10
-8.600000000000385
 20
4.78140931370058
  0
LINE
  5
327
330
1F
100
AcDbEntity
  8
AM_9
100
AcDbLine
 10
-8.600000000000415
 20
7.950000000001689
 30
0.0
 11
-8.600000000000412
 21
-7.94999999999833
 31
0.0
  0
LWPOLYLINE
  5
328
330
1F
100
AcDbEntity
  8
AM_9
100
AcDbPolyline
 90
        8
 70
     0
 43
0.0
 10
-8.900000000000407
 20
-1.477383665000401
 10
-8.899984502206332
 20
-1.474901975247925
 10
-8.878543306939656
 20
-1.386789585899786
 10
-8.829586982184335
 20
-1.320475729548437
 10
-8.764981102329955
 20
-1.273890199713565
 10
-8.6906151285136
 20
-1.245190478763328
 10
-8.606941131696244
 20
-1.233908524672159
 10
-8.600000000000385
 20
-1.233843499652234
  0
LINE
  5
329
330
1F
100
AcDbEntity
  8
AM_9
100
AcDbLine
 10
-2.056475521454104
 20
2.450000000000729
 30
0.0
 11
0.4000000000018993
 21
2.450000000000757
 31
0.0
  0
LINE
  5
32A
330
1F
100
AcDbEntity
  8
AM_9
100
AcDbLine
 10
2.20000000000184
 20
-2.549999999999248
 30
0.0
 11
2.200000000001868
 21
2.550000000000746
 31
0.0
  0
LINE
  5
32B
330
1F
100
AcDbEntity
  8
AM_9
100
AcDbLine
 10
1.200000000001894
 20
2.550000000000746
 30
0.0
 11
19.43000000000189
 21
2.550000000000732
 31
0.0
  0
ARC
  5
32C
330
1F
100
AcDbEntity
  8
AM_9
100
AcDbCircle
 10
0.4000000000018591
 20
5.700000000000939
 30
0.0
 40
3.250000000000182
100
AcDbArc
 50
270.0000000000007
 51
284.2500326978034
  0
LINE
  5
32D
330
1F
100
AcDbEntity
  8
AM_9
100
AcDbLine
 10
-5.549999999998056
 20
0.4330127018928737
 30
0.0
 11
-2.056475521454104
 21
2.450000000000757
 31
0.0
  0
ARC
  5
32E
330
1F
100
AcDbEntity
  8
AM_9
100
AcDbCircle
 10
-5.299999999998158
 20
0.0000000000007452
 30
0.0
 40
0.4999999999999703
100
AcDbArc
 50
119.9999999999959
 51
239.9999999999895
  0
LINE
  5
32F
330
1F
100
AcDbEntity
  8
AM_9
100
AcDbLine
 10
-2.056475521454104
 20
-2.449999999999175
 30
0.0
 11
-5.549999999998139
 21
-0.4330127018912361
 31
0.0
  0
LINE
  5
330
330
1F
100
AcDbEntity
  8
AM_9
100
AcDbLine
 10
0.4000000000018716
 20
-2.449999999999244
 30
0.0
 11
-2.056475521454132
 21
-2.449999999999244
 31
0.0
  0
ARC
  5
331
330
1F
100
AcDbEntity
  8
AM_9
100
AcDbCircle
 10
0.4000000000018309
 20
-5.699999999999429
 30
0.0
 40
3.250000000000185
100
AcDbArc
 50
75.74996730219658
 51
89.9999999999993
  0
LINE
  5
332
330
1F
100
AcDbEntity
  8
AM_9
100
AcDbLine
 10
19.43000000000189
 20
-2.549999999999261
 30
0.0
 11
1.200000000001867
 21
-2.549999999999248
 31
0.0
  0
LINE
  5
333
330
1F
100
AcDbEntity
  8
AM_9
100
AcDbLine
 10
-0.8000000000000224
 20
18.82601554580651
 30
0.0
 11
-0.5000000000000276
 21
18.82601554580651
 31
0.0
  0
LINE
  5
334
330
1F
100
AcDbEntity
  8
AM_9
100
AcDbLine
 10
-0.8000000000000362
 20
18.44599492736752
 30
0.0
 11
-0.5000000000000415
 21
18.44599492736752
 31
0.0
  0
LINE
  5
335
330
1F
100
AcDbEntity
  8
AM_0
100
AcDbLine
 10
-0.8000000000000362
 20
16.69634657190382
 30
0.0
 11
-0.5000000000000415
 21
16.69634657190382
 31
0.0
  0
LINE
  5
336
330
1F
100
AcDbEntity
  8
AM_0
100
AcDbLine
 10
-0.5000000000000415
 20
16.69634657190382
 30
0.0
 11
-0.5000000000000413
 21
17.11990889538043
 31
0.0
  0
LINE
  5
337
330
1F
100
AcDbEntity
  8
AM_9
100
AcDbLine
 10
-0.8000000000000362
 20
17.11344247148583
 30
0.0
 11
-0.5000000000000415
 21
17.11344247148583
 31
0.0
  0
LINE
  5
338
330
1F
100
AcDbEntity
  8
AM_9
100
AcDbLine
 10
0.0000000000018601
 20
-2.599999999999214
 30
0.0
 11
4.500000000001864
 21
-2.59999999999927
 31
0.0
  0
LINE
  5
339
330
1F
100
AcDbEntity
  8
AM_9
100
AcDbLine
 10
4.500000000001892
 20
2.600000000000629
 30
0.0
 11
0.0000000000018879
 21
2.600000000000644
 31
0.0
  0
LINE
  5
33A
330
1F
100
AcDbEntity
  8
AM_9
100
AcDbLine
 10
24.70000000000189
 20
2.500000000000724
 30
0.0
 11
26.00000000000188
 21
2.500000000000724
 31
0.0
  0
LINE
  5
33B
330
1F
100
AcDbEntity
  8
AM_9
100
AcDbLine
 10
2.00000000000189
 20
2.500000000000738
 30
0.0
 11
18.00000000000185
 21
2.500000000000724
 31
0.0
  0
LINE
  5
33C
330
1F
100
AcDbEntity
  8
AM_9
100
AcDbLine
 10
18.00000000000184
 20
-2.499999999999267
 30
0.0
 11
2.000000000001862
 21
-2.499999999999253
 31
0.0
  0
LINE
  5
33D
330
1F
100
AcDbEntity
  8
AM_9
100
AcDbLine
 10
26.00000000000185
 20
-2.499999999999267
 30
0.0
 11
24.70000000000185
 21
-2.499999999999267
 31
0.0
  0
LINE
  5
33E
330
1F
100
AcDbEntity
  8
AM_9
100
AcDbLine
 10
-59.32872080858235
 20
7.000000000002287
 30
0.0
 11
-59.32872080858235
 21
-6.999999999998491
 31
0.0
  0
LINE
  5
33F
330
1F
100
AcDbEntity
  8
AM_9
100
AcDbLine
 10
-62.32872080858236
 20
7.000000000002077
 30
0.0
 11
-62.32872080858236
 21
-6.999999999998303
 31
0.0
  0
ARC
  5
340
330
1F
100
AcDbEntity
  8
AM_9
100
AcDbCircle
 10
-60.82872080858235
 20
-6.999999999998397
 30
0.0
 40
1.500000000000007
100
AcDbArc
 50
179.9999999999966
 51
359.9999999999955
  0
ARC
  5
341
330
1F
100
AcDbEntity
  8
AM_9
100
AcDbCircle
 10
-60.82872080858236
 20
7.000000000002174
 30
0.0
 40
1.500000000000007
100
AcDbArc
 50
0.0000000000045461
 51
180.0000000000035
  0
LINE
  5
342
330
1F
100
AcDbEntity
  8
AM_9
100
AcDbLine
 10
-6.700000000000081
 20
-9.656183252194458
 30
0.0
 11
-6.70000000000008
 21
-6.952760866110353
 31
0.0
  0
LINE
  5
343
330
1F
100
AcDbEntity
  8
AM_9
100
AcDbLine
 10
-6.70000000000008
 20
-6.95276086611038
 30
0.0
 11
-9.500000000000078
 21
-6.95276086611038
 31
0.0
  0
ARC
  5
344
330
1F
100
AcDbEntity
  8
AM_0
100
AcDbCircle
 10
-48.82872080858245
 20
-8.749999999999261
 30
0.0
 40
1.5
100
AcDbArc
 50
359.9999999999962
 51
180.0
  0
ARC
  5
345
330
1F
100
AcDbEntity
  8
AM_0
100
AcDbCircle
 10
-48.82872080858246
 20
8.750000000002903
 30
0.0
 40
1.5
100
AcDbArc
 50
179.9999999999998
 51
0.0000000000038676
  0
ARC
  5
346
330
1F
100
AcDbEntity
  8
AM_9
100
AcDbCircle
 10
-48.82872080858245
 20
-8.749999999999263
 30
0.0
 40
2.5
100
AcDbArc
 50
359.9999999999956
 51
179.9999999999975
  0
ARC
  5
347
330
1F
100
AcDbEntity
  8
AM_9
100
AcDbCircle
 10
-48.82872080858246
 20
8.750000000002906
 30
0.0
 40
2.5
100
AcDbArc
 50
180.0000000000024
 51
0.0000000000044375
  0
LINE
  5
348
330
1F
100
AcDbEntity
  8
AM_9
100
AcDbLine
 10
-7.300000000000447
 20
8.813465304666263
 30
0.0
 11
-7.300000000000443
 21
-8.813465304662904
 31
0.0
  0
ARC
  5
349
330
1F
100
AcDbEntity
  8
AM_9
100
AcDbCircle
 10
-7.100000000000411
 20
-8.813465304662879
 30
0.0
 40
0.1999999999999948
100
AcDbArc
 50
180.0000000000066
 51
266.9999999998741
  0
ARC
  5
34A
330
1F
100
AcDbEntity
  8
AM_9
100
AcDbCircle
 10
-7.100000000000414
 20
8.813465304666238
 30
0.0
 40
0.199999999999995
100
AcDbArc
 50
93.00000000012619
 51
179.9999999999934
  0
LINE
  5
34B
330
1F
100
AcDbEntity
  8
AM_9
100
AcDbLine
 10
10.22345827411239
 20
-15.49616938656813
 30
0.0
 11
12.50000000000182
 21
-6.999999999999243
 31
0.0
  0
LINE
  5
34C
330
1F
100
AcDbEntity
  8
AM_9
100
AcDbLine
 10
10.8047352545807
 20
-13.32681416219295
 30
0.0
 11
3.431851652579893
 21
-11.35125595514815
 31
0.0
  0
LINE
  5
34D
330
1F
100
AcDbEntity
  8
AM_9
100
AcDbLine
 10
1.500000000001917
 20
-8.833617864943259
 30
0.0
 11
1.500000000001862
 21
-5.999999999999256
 31
0.0
  0
LINE
  5
34E
330
1F
100
AcDbEntity
  8
AM_9
100
AcDbLine
 10
10.81432842725891
 20
-16.37918589322229
 30
0.0
 11
11.18938410040179
 21
-15.75498843167122
 31
0.0
  0
LINE
  5
34F
330
1F
100
AcDbEntity
  8
AM_9
100
AcDbLine
 10
11.18938410040191
 20
-15.75498843167114
 30
0.0
 11
10.12929215494055
 21
-15.47093765098219
 31
0.0
  0
LINE
  5
350
330
1F
100
AcDbEntity
  8
AM_9
100
AcDbLine
 10
3.431851652579782
 20
-11.35125595514833
 30
0.0
 11
1.500000000001778
 21
-8.833617864943328
 31
0.0
  0
LINE
  5
351
330
1F
100
AcDbEntity
  8
AM_9
100
AcDbLine
 10
12.50000000000184
 20
-6.999999999999229
 30
0.0
 11
4.500000000001864
 21
-6.999999999999257
 31
0.0
  0
LINE
  5
352
330
1F
100
AcDbEntity
  8
AM_9
100
AcDbLine
 10
3.500000000001891
 20
-5.999999999999256
 30
0.0
 11
3.500000000001974
 21
-7.999999999999257
 31
0.0
  0
LINE
  5
353
330
1F
100
AcDbEntity
  8
AM_9
100
AcDbLine
 10
3.500000000001863
 20
-7.999999999999257
 30
0.0
 11
8.69782936251584
 21
-7.999999999999257
 31
0.0
  0
LINE
  5
354
330
1F
100
AcDbEntity
  8
AM_9
100
AcDbLine
 10
8.697829362515897
 20
-7.999999999999105
 30
0.0
 11
11.99530286205197
 21
-8.883555361262827
 31
0.0
  0
LINE
  5
355
330
1F
100
AcDbEntity
  8
AM_9
100
AcDbLine
 10
11.70248880188771
 20
-14.03324078138074
 30
0.0
 11
13.58703998943261
 21
-6.999999999999187
 31
0.0
  0
LINE
  5
356
330
1F
100
AcDbEntity
  8
AM_9
100
AcDbLine
 10
13.44951735633001
 20
-7.513241453928732
 30
0.0
 11
18.23085019646081
 21
-8.794395727186197
 31
0.0
  0
LINE
  5
357
330
1F
100
AcDbEntity
  8
AM_9
100
AcDbLine
 10
18.01085400812344
 20
-9.615432679532853
 30
0.0
 11
20.7154463217327
 21
-10.3401260058199
 31
0.0
  0
LINE
  5
358
330
1F
100
AcDbEntity
  8
AM_9
100
AcDbLine
 10
20.71544632173286
 20
-10.34012600581942
 30
0.0
 11
26.00000000000185
 21
-10.80246454446217
 31
0.0
  0
LINE
  5
359
330
1F
100
AcDbEntity
  8
AM_9
100
AcDbLine
 10
4.500000000001864
 20
-3.999999999999254
 30
0.0
 11
24.50000000000185
 21
-3.999999999999268
 31
0.0
  0
LINE
  5
35A
330
1F
100
AcDbEntity
  8
AM_9
100
AcDbLine
 10
12.50000000000184
 20
7.000000000000728
 30
0.0
 11
10.22345827411242
 21
15.49616938656971
 31
0.0
  0
LINE
  5
35B
330
1F
100
AcDbEntity
  8
AM_9
100
AcDbLine
 10
11.99530286205189
 20
8.883555361264465
 30
0.0
 11
8.697829362515868
 21
8.000000000000757
 31
0.0
  0
LINE
  5
35C
330
1F
100
AcDbEntity
  8
AM_9
100
AcDbLine
 10
8.697829362515868
 20
8.000000000000743
 30
0.0
 11
3.500000000001946
 21
8.000000000000743
 31
0.0
  0
LINE
  5
35D
330
1F
100
AcDbEntity
  8
AM_9
100
AcDbLine
 10
3.500000000001946
 20
8.000000000000728
 30
0.0
 11
3.500000000001946
 21
6.000000000000755
 31
0.0
  0
LINE
  5
35E
330
1F
100
AcDbEntity
  8
AM_9
100
AcDbLine
 10
4.500000000001837
 20
7.000000000000714
 30
0.0
 11
12.50000000000187
 21
7.000000000000742
 31
0.0
  0
LINE
  5
35F
330
1F
100
AcDbEntity
  8
AM_9
100
AcDbLine
 10
10.12929215494088
 20
15.47093765098323
 30
0.0
 11
11.18938410040188
 21
15.7549884316724
 31
0.0
  0
LINE
  5
360
330
1F
100
AcDbEntity
  8
AM_9
100
AcDbLine
 10
1.500000000001917
 20
6.000000000000727
 30
0.0
 11
1.500000000001945
 21
8.833617864944687
 31
0.0
  0
LINE
  5
361
330
1F
100
AcDbEntity
  8
AM_9
100
AcDbLine
 10
1.500000000001889
 20
8.83361786494473
 30
0.0
 11
3.431851652579754
 21
11.35125595514953
 31
0.0
  0
LINE
  5
362
330
1F
100
AcDbEntity
  8
AM_9
100
AcDbLine
 10
3.431851652579865
 20
11.35125595514956
 30
0.0
 11
10.80473525458081
 21
13.3268141621944
 31
0.0
  0
LINE
  5
363
330
1F
100
AcDbEntity
  8
AM_9
100
AcDbLine
 10
11.18938410040185
 20
15.75498843167232
 30
0.0
 11
10.81432842725871
 21
16.37918589322382
 31
0.0
  0
LINE
  5
364
330
1F
100
AcDbEntity
  8
AM_9
100
AcDbLine
 10
26.00000000000188
 20
10.80246454446364
 30
0.0
 11
20.71544632173289
 21
10.34012600582089
 31
0.0
  0
LINE
  5
365
330
1F
100
AcDbEntity
  8
AM_9
100
AcDbLine
 10
20.71544632173289
 20
10.34012600582089
 30
0.0
 11
18.01085400812377
 21
9.615432679533868
 31
0.0
  0
LINE
  5
366
330
1F
100
AcDbEntity
  8
AM_9
100
AcDbLine
 10
18.23085019646081
 20
8.794395727188112
 30
0.0
 11
13.4495173563299
 21
7.513241453930647
 31
0.0
  0
LINE
  5
367
330
1F
100
AcDbEntity
  8
AM_9
100
AcDbLine
 10
11.70248880188785
 20
14.03324078138185
 30
0.0
 11
13.58703998943264
 21
7.000000000000576
 31
0.0
  0
LINE
  5
368
330
1F
100
AcDbEntity
  8
AM_9
100
AcDbLine
 10
24.50000000000185
 20
4.000000000000711
 30
0.0
 11
4.500000000001892
 21
4.000000000000711
 31
0.0
  0
LINE
  5
369
330
1F
100
AcDbEntity
  8
AM_9
100
AcDbLine
 10
-8.900000000000437
 20
8.845447317995609
 30
0.0
 11
-8.900000000000434
 21
-8.84544731799225
 31
0.0
  0
ARC
  5
36A
330
1F
100
AcDbEntity
  8
AM_9
100
AcDbCircle
 10
-9.200000000000424
 20
-8.845447317992253
 30
0.0
 40
0.2999999999999953
100
AcDbArc
 50
276.9999999998965
 51
0.0000000000010178
  0
ARC
  5
36B
330
1F
100
AcDbEntity
  8
AM_9
100
AcDbCircle
 10
-9.20000000000043
 20
8.84544731799561
 30
0.0
 40
0.2999999999999972
100
AcDbArc
 50
359.9999999999993
 51
83.0000000001032
  0
LINE
  5
36C
330
1F
100
AcDbEntity
  8
AM_9
100
AcDbLine
 10
-7.110467191249444
 20
9.01319121161716
 30
0.0
 11
-7.11046719124944
 21
-9.013191211613801
 31
0.0
  0
LINE
  5
36D
330
1F
100
AcDbEntity
  8
AM_9
100
AcDbLine
 10
-7.11046719124944
 20
-9.013191211613762
 30
0.0
 11
-4.500000000000418
 21
-9.149999999998386
 31
0.0
  0
LINE
  5
36E
330
1F
100
AcDbEntity
  8
AM_9
100
AcDbLine
 10
-4.500000000000422
 20
9.150000000001745
 30
0.0
 11
-7.110467191249444
 21
9.013191211617118
 31
0.0
  0
LINE
  5
36F
330
1F
100
AcDbEntity
  8
AM_9
100
AcDbLine
 10
16.59616488361901
 20
-10.65475658725322
 30
0.0
 11
16.09386158774498
 21
-10.59752635568549
 31
0.0
  0
LINE
  5
370
330
1F
100
AcDbEntity
  8
AM_9
100
AcDbLine
 10
15.21330846917066
 20
-13.88379533297022
 30
0.0
 11
16.09386158774498
 21
-10.59752635568549
 31
0.0
  0
LINE
  5
371
330
1F
100
AcDbEntity
  8
AM_9
100
AcDbLine
 10
16.09386158774506
 20
10.59752635568696
 30
0.0
 11
15.21330846917063
 21
13.8837953329717
 31
0.0
  0
LINE
  5
372
330
1F
100
AcDbEntity
  8
AM_9
100
AcDbLine
 10
15.67693099958572
 20
14.08538414650688
 30
0.0
 11
15.21330846917063
 21
13.8837953329717
 31
0.0
  0
LINE
  5
373
330
1F
100
AcDbEntity
  8
AM_9
100
AcDbLine
 10
15.67693099958561
 20
-14.08538414650583
 30
0.0
 11
15.21330846917068
 21
-13.88379533297071
 31
0.0
  0
LINE
  5
374
330
1F
100
AcDbEntity
  8
AM_9
100
AcDbLine
 10
16.59616488361893
 20
10.65475658725412
 30
0.0
 11
16.09386158774492
 21
10.5975263556868
 31
0.0
  0
LINE
  5
375
330
1F
100
AcDbEntity
  8
AM_0
100
AcDbLine
 10
-58.32872080858235
 20
7.000000000002292
 30
0.0
 11
-58.32872080858235
 21
-6.999999999998608
 31
0.0
  0
LINE
  5
376
330
1F
100
AcDbEntity
  8
AM_0
100
AcDbLine
 10
-63.32872080858236
 20
7.000000000001989
 30
0.0
 11
-63.32872080858236
 21
-6.99999999999827
 31
0.0
  0
ARC
  5
377
330
1F
100
AcDbEntity
  8
AM_0
100
AcDbCircle
 10
-60.82872080858236
 20
-6.999999999998401
 30
0.0
 40
2.5
100
AcDbArc
 50
179.9999999999957
 51
359.9999999999976
  0
ARC
  5
378
330
1F
100
AcDbEntity
  8
AM_0
100
AcDbCircle
 10
-60.82872080858236
 20
7.000000000002175
 30
0.0
 40
2.500000000000007
100
AcDbArc
 50
0.0000000000025648
 51
180.0000000000043
  0
LINE
  5
379
330
1F
100
AcDbEntity
  8
AM_9
100
AcDbLine
 10
16.04458535382275
 20
-12.71327941686823
 30
0.0
 11
15.36009080629529
 21
-15.26784784574648
 31
0.0
  0
LINE
  5
37A
330
1F
100
AcDbEntity
  8
AM_9
100
AcDbLine
 10
16.91300507691042
 20
-9.47229288801207
 30
0.0
 11
16.22851052938193
 21
-12.02686131689031
 31
0.0
  0
LINE
  5
37B
330
1F
100
AcDbEntity
  8
AM_9
100
AcDbLine
 10
16.22851052938207
 20
12.02686131689158
 30
0.0
 11
16.91300507691043
 21
9.472292888013316
 31
0.0
  0
LINE
  5
37C
330
1F
100
AcDbEntity
  8
AM_9
100
AcDbLine
 10
15.36009080629532
 20
15.26784784574773
 30
0.0
 11
16.04458535382286
 21
12.71327941686952
 31
0.0
  0
LINE
  5
37D
330
1F
100
AcDbEntity
  8
AM_9
100
AcDbLine
 10
-5.300000000000443
 20
-9.560534451735645
 30
0.0
 11
-4.50000000000042
 21
-9.039141935470285
 31
0.0
  0
LINE
  5
37E
330
1F
100
AcDbEntity
  8
AM_9
100
AcDbLine
 10
-7.500000000000423
 20
-9.568785570336482
 30
0.0
 11
-5.300000000000443
 21
-9.560534451735645
 31
0.0
  0
LINE
  5
37F
330
1F
100
AcDbEntity
  8
AM_9
100
AcDbLine
 10
-5.300000000000415
 20
-5.029764696363112
 30
0.0
 11
-7.500000000000394
 21
-5.0415518351314
 31
0.0
  0
LINE
  5
380
330
1F
100
AcDbEntity
  8
AM_9
100
AcDbLine
 10
-4.500000000000392
 20
-4.28492920928171
 30
0.0
 11
-5.300000000000415
 21
-5.029764696363112
 31
0.0
  0
LINE
  5
381
330
1F
100
AcDbEntity
  8
AM_9
100
AcDbLine
 10
-9.16343919697943
 20
9.143211163488008
 30
0.0
 11
-9.163439196979427
 21
-9.143211163484649
 31
0.0
  0
LINE
  5
382
330
1F
100
AcDbEntity
  8
AM_9
100
AcDbLine
 10
-9.16343919697943
 20
9.1432111634881
 30
0.0
 11
-12.90000000000044
 21
9.602003140974082
 31
0.0
  0
LINE
  5
383
330
1F
100
AcDbEntity
  8
AM_9
100
AcDbLine
 10
-12.90000000000044
 20
-9.602003140970726
 30
0.0
 11
-9.163439196979427
 21
-9.14321116348474
 31
0.0
  0
LINE
  5
384
330
1F
100
AcDbEntity
  8
AM_9
100
AcDbLine
 10
-12.90000000000044
 20
9.602003140974048
 30
0.0
 11
-12.90000000000044
 21
-9.60200314097069
 31
0.0
  0
LINE
  5
385
330
1F
100
AcDbEntity
  8
AM_9
100
AcDbLine
 10
-12.90000000000044
 20
9.602003140974052
 30
0.0
 11
-23.40218165464342
 21
9.64782784391595
 31
0.0
  0
LINE
  5
386
330
1F
100
AcDbEntity
  8
AM_9
100
AcDbLine
 10
-23.40218165464341
 20
-9.647827843912596
 30
0.0
 11
-12.90000000000044
 21
-9.602003140970691
 31
0.0
  0
LINE
  5
387
330
1F
100
AcDbEntity
  8
AM_9
100
AcDbLine
 10
-0.8000000000000222
 20
18.72245016188281
 30
0.0
 11
-0.5000000000000275
 21
18.72245016188281
 31
0.0
  0
LINE
  5
388
330
1F
100
AcDbEntity
  8
AM_9
100
AcDbLine
 10
-0.8000000000000222
 20
18.52547063917783
 30
0.0
 11
-0.5000000000000275
 21
18.52547063917783
 31
0.0
  0
LINE
  5
389
330
1F
100
AcDbEntity
  8
AM_9
100
AcDbLine
 10
-0.8000000000000361
 20
18.22070207686081
 30
0.0
 11
-0.5000000000000414
 21
18.22070207686081
 31
0.0
  0
LINE
  5
38A
330
1F
100
AcDbEntity
  8
AM_9
100
AcDbLine
 10
2.000000000001862
 20
-2.499999999999253
 30
0.0
 11
2.00000000000189
 21
2.500000000000738
 31
0.0
  0
LINE
  5
38B
330
1F
100
AcDbEntity
  8
AM_9
100
AcDbLine
 10
17.00000000000188
 20
2.500000000000724
 30
0.0
 11
17.00000000000185
 21
-2.499999999999267
 31
0.0
  0
LINE
  5
38C
330
1F
100
AcDbEntity
  8
AM_9
100
AcDbLine
 10
-0.8000000000000222
 20
18.89832248777983
 30
0.0
 11
-0.5000000000000275
 21
18.89832248777983
 31
0.0
  0
LINE
  5
38D
330
1F
100
AcDbEntity
  8
AM_9
100
AcDbLine
 10
-10.50000000000042
 20
-9.899999999998402
 30
0.0
 11
-7.500000000000421
 21
-9.899999999998402
 31
0.0
  0
LINE
  5
38E
330
1F
100
AcDbEntity
  8
AM_9
100
AcDbLine
 10
-7.500000000000425
 20
9.900000000001759
 30
0.0
 11
-10.50000000000043
 21
9.900000000001759
 31
0.0
  0
LINE
  5
38F
330
1F
100
AcDbEntity
  8
AM_9
100
AcDbLine
 10
-0.8000000000000222
 20
19.05308523268381
 30
0.0
 11
-0.5000000000000275
 21
19.05308523268381
 31
0.0
  0
LINE
  5
390
330
1F
100
AcDbEntity
  8
AM_9
100
AcDbLine
 10
-7.500000000000394
 20
-4.231811462643911
 30
0.0
 11
-4.500000000000392
 21
-4.231811462643897
 31
0.0
  0
LINE
  5
391
330
1F
100
AcDbEntity
  8
AM_9
100
AcDbLine
 10
-0.8000000000000361
 20
17.90112772078181
 30
0.0
 11
-0.5000000000000414
 21
17.90112772078181
 31
0.0
  0
LINE
  5
392
330
1F
100
AcDbEntity
  8
AM_9
100
AcDbLine
 10
15.83362109076489
 20
11.56875711260504
 30
0.0
 11
16.33592438663889
 21
11.62598734417236
 31
0.0
  0
LWPOLYLINE
  5
393
330
1F
100
AcDbEntity
  8
AM_9
100
AcDbPolyline
 90
       13
 70
     0
 43
0.0
 10
16.22851052938187
 20
12.02686131689148
 10
16.47394003150484
 20
12.02960141703719
 10
16.70394615425281
 20
12.02754849955474
 10
16.91677841215017
 20
12.02071818838576
 10
17.1108170232027
 20
12.0091624663225
 10
17.28458523641657
 20
11.9929692793874
 10
17.4367605707651
 20
11.97226186751074
 10
17.56618488006793
 20
11.94719782660039
 10
17.67187316718272
 20
11.91796790914176
 10
17.7530210804282
 20
11.88479457245621
 10
17.80901103518612
 20
11.84793028566653
 10
17.83941691409311
 20
11.80765560825445
 10
17.84283427426076
 20
11.79767803887426
  0
LINE
  5
394
330
1F
100
AcDbEntity
  8
AM_9
100
AcDbLine
 10
15.473548966151
 20
-12.912564576052
 30
0.0
 11
15.93717149656596
 21
-13.11415338958713
 31
0.0
  0
LWPOLYLINE
  5
395
330
1F
100
AcDbEntity
  8
AM_9
100
AcDbPolyline
 90
       13
 70
     0
 43
0.0
 10
16.04458535382263
 20
-12.71327941686874
 10
16.25850358757211
 20
-12.83362117159512
 10
16.45666827415656
 20
-12.95040211166077
 10
16.63757126065595
 20
-13.06273346359753
 10
16.79983576611082
 20
-13.16976031798964
 10
16.94222685965666
 20
-13.27066813585059
 10
17.06366085909351
 20
-13.36468894775665
 10
17.16321357836179
 20
-13.4511071985579
 10
17.2401273611563
 20
-13.52926519318498
 10
17.29381684714816
 20
-13.59856810210568
 10
17.32387342693037
 20
-13.65848848833688
 10
17.33006835178213
 20
-13.70857032155844
 10
17.32803908781122
 20
-13.71891983019304
  0
LWPOLYLINE
  5
396
330
1F
100
AcDbEntity
  8
AM_9
100
AcDbPolyline
 90
       13
 70
     0
 43
0.0
 10
17.84283427426078
 20
-11.79767803887319
 10
17.81851220404254
 20
-11.83871439142529
 10
17.76853374834141
 20
-11.87641049187487
 10
17.69327927338309
 20
-11.91047945013598
 10
17.59332151116192
 20
-11.94066198086486
 10
17.46942120060454
 20
-11.96672837677795
 10
17.32252129788735
 20
-11.98848025686302
 10
17.15373979997061
 20
-12.00575207617849
 10
16.96436123596652
 20
-12.01841238575036
 10
16.75582689109706
 20
-12.02636483297828
 10
16.52972383764316
 20
-12.02954889493703
 10
16.28777285636638
 20
-12.0279403389925
 10
16.22851052938185
 20
-12.02686131689063
  0
LINE
  5
397
330
1F
100
AcDbEntity
  8
AM_9
100
AcDbLine
 10
16.33592438663872
 20
-11.62598734417129
 30
0.0
 11
15.83362109076461
 21
-11.56875711260359
 31
0.0
  0
LWPOLYLINE
  5
398
330
1F
100
AcDbEntity
  8
AM_9
100
AcDbPolyline
 90
       13
 70
     0
 43
0.0
 10
17.32803908781124
 20
13.71891983019399
 10
17.32749373340532
 20
13.67122027129595
 10
17.30305917135067
 20
13.6135852628323
 10
17.25492136341853
 20
13.54645344201841
 10
17.18344666739365
 20
13.47033572254598
 10
17.0891790488704
 20
13.38581140622134
 10
16.97283594134607
 20
13.29352377412889
 10
16.83530278611883
 20
13.19417519087365
 10
16.67762629354472
 20
13.08852175916251
 10
16.50100647693992
 20
12.97736756540608
 10
16.30678751975475
 20
12.86155856013557
 10
16.09644754552599
 20
12.74197611980849
 10
16.04458535382278
 20
12.71327941686975
  0
LINE
  5
399
330
1F
100
AcDbEntity
  8
AM_9
100
AcDbLine
 10
15.93717149656609
 20
13.11415338958863
 30
0.0
 11
15.47354896615111
 21
12.9125645760534
 31
0.0
  0
LINE
  5
39A
330
1F
100
AcDbEntity
  8
AM_9
100
AcDbLine
 10
-0.8000000000000222
 20
19.18674078077983
 30
0.0
 11
-0.5000000000000275
 21
19.18674078077983
 31
0.0
  0
LINE
  5
39B
330
1F
100
AcDbEntity
  8
AM_9
100
AcDbLine
 10
-0.8000000000000361
 20
17.77926530928282
 30
0.0
 11
-0.5000000000000414
 21
17.77926530928282
 31
0.0
  0
LINE
  5
39C
330
1F
100
AcDbEntity
  8
AM_9
100
AcDbLine
 10
-9.500000000000078
 20
1.666980819194821
 30
0.0
 11
-0.000000000000041
 21
1.666980819194821
 31
0.0
  0
LINE
  5
39D
330
1F
100
AcDbEntity
  8
AM_9
100
AcDbLine
 10
-9.500000000000064
 20
-1.666980819190977
 30
0.0
 11
-0.0000000000000549
 21
-1.666980819190977
 31
0.0
  0
LINE
  5
39E
330
1F
100
AcDbEntity
  8
AM_9
100
AcDbLine
 10
-4.500000000000393
 20
7.172939975136586
 30
0.0
 11
-5.300000000000415
 21
7.404521647482093
 31
0.0
  0
LINE
  5
39F
330
1F
100
AcDbEntity
  8
AM_9
100
AcDbLine
 10
-5.300000000000415
 20
3.836139691474103
 30
0.0
 11
-4.500000000000392
 21
3.133642842563941
 31
0.0
  0
LINE
  5
3A0
330
1F
100
AcDbEntity
  8
AM_9
100
AcDbLine
 10
-7.500000000000394
 20
3.083456492683809
 30
0.0
 11
-4.500000000000392
 21
3.083456492683809
 31
0.0
  0
LINE
  5
3A1
330
1F
100
AcDbEntity
  8
AM_9
100
AcDbLine
 10
-7.500000000000394
 20
3.847240262546625
 30
0.0
 11
-5.300000000000415
 21
3.836139691474103
 31
0.0
  0
LINE
  5
3A2
330
1F
100
AcDbEntity
  8
AM_9
100
AcDbLine
 10
-5.300000000000415
 20
7.404521647482093
 30
0.0
 11
-7.500000000000394
 21
7.408181007402121
 31
0.0
  0
LINE
  5
3A3
330
1F
100
AcDbEntity
  8
AM_9
100
AcDbLine
 10
-23.40218165464342
 20
9.64782784391595
 30
0.0
 11
-23.40218165464341
 21
-9.647827843912593
 31
0.0
  0
ARC
  5
3A4
330
1F
100
AcDbEntity
  8
AM_9
100
AcDbCircle
 10
-23.40000000000044
 20
-10.14782308427293
 30
0.0
 40
0.5000000000000036
100
AcDbArc
 50
90.25000000006892
 51
179.9999999999994
  0
ARC
  5
3A5
330
1F
100
AcDbEntity
  8
AM_9
100
AcDbCircle
 10
-23.40000000000045
 20
10.14782308427628
 30
0.0
 40
0.5000000000000036
100
AcDbArc
 50
180.0000000000004
 51
269.749999999931
  0
LINE
  5
3A6
330
1F
100
AcDbEntity
  8
AM_9
100
AcDbLine
 10
6.200000000001899
 20
2.400000000000762
 30
0.0
 11
6.200000000001899
 21
1.800000000000634
 31
0.0
  0
LINE
  5
3A7
330
1F
100
AcDbEntity
  8
AM_9
100
AcDbLine
 10
4.200000000001842
 20
-0.9999999999992654
 30
0.0
 11
3.200000000001868
 21
-0.9999999999992654
 31
0.0
  0
LINE
  5
3A8
330
1F
100
AcDbEntity
  8
AM_9
100
AcDbLine
 10
4.200000000001842
 20
-2.399999999999264
 30
0.0
 11
4.200000000001869
 21
0.0960000000007621
 31
0.0
  0
LINE
  5
3A9
330
1F
100
AcDbEntity
  8
AM_9
100
AcDbLine
 10
6.200000000001844
 20
-2.399999999999264
 30
0.0
 11
4.200000000001842
 21
-2.399999999999264
 31
0.0
  0
LINE
  5
3AA
330
1F
100
AcDbEntity
  8
AM_9
100
AcDbLine
 10
6.200000000001844
 20
-1.79999999999926
 30
0.0
 11
6.200000000001844
 21
-2.399999999999264
 31
0.0
  0
LINE
  5
3AB
330
1F
100
AcDbEntity
  8
AM_9
100
AcDbLine
 10
5.200000000001871
 20
-1.79999999999926
 30
0.0
 11
6.200000000001844
 21
-1.79999999999926
 31
0.0
  0
LINE
  5
3AC
330
1F
100
AcDbEntity
  8
AM_9
100
AcDbLine
 10
5.200000000001898
 20
1.800000000000634
 30
0.0
 11
5.200000000001871
 21
-1.79999999999926
 31
0.0
  0
LINE
  5
3AD
330
1F
100
AcDbEntity
  8
AM_9
100
AcDbLine
 10
6.200000000001899
 20
1.800000000000634
 30
0.0
 11
5.200000000001898
 21
1.800000000000634
 31
0.0
  0
LINE
  5
3AE
330
1F
100
AcDbEntity
  8
AM_9
100
AcDbLine
 10
4.20000000000187
 20
2.400000000000762
 30
0.0
 11
6.200000000001872
 21
2.400000000000762
 31
0.0
  0
LINE
  5
3AF
330
1F
100
AcDbEntity
  8
AM_9
100
AcDbLine
 10
4.20000000000187
 20
1.000000000000723
 30
0.0
 11
4.20000000000187
 21
2.400000000000762
 31
0.0
  0
LINE
  5
3B0
330
1F
100
AcDbEntity
  8
AM_9
100
AcDbLine
 10
3.200000000001924
 20
1.000000000000723
 30
0.0
 11
4.20000000000187
 21
1.000000000000723
 31
0.0
  0
LINE
  5
3B1
330
1F
100
AcDbEntity
  8
AM_9
100
AcDbLine
 10
3.200000000001924
 20
2.400000000000762
 30
0.0
 11
3.200000000001924
 21
1.000000000000723
 31
0.0
  0
LINE
  5
3B2
330
1F
100
AcDbEntity
  8
AM_9
100
AcDbLine
 10
2.200000000001868
 20
2.400000000000762
 30
0.0
 11
3.200000000001924
 21
2.400000000000762
 31
0.0
  0
LINE
  5
3B3
330
1F
100
AcDbEntity
  8
AM_9
100
AcDbLine
 10
3.200000000001868
 20
-2.39999999999925
 30
0.0
 11
2.20000000000184
 21
-2.399999999999264
 31
0.0
  0
LINE
  5
3B4
330
1F
100
AcDbEntity
  8
AM_9
100
AcDbLine
 10
3.200000000001868
 20
-0.9999999999992654
 30
0.0
 11
3.200000000001868
 21
-2.399999999999264
 31
0.0
  0
LINE
  5
3B5
330
1F
100
AcDbEntity
  8
AM_9
100
AcDbLine
 10
-0.8000000000000361
 20
18.42450227827682
 30
0.0
 11
-0.5000000000000414
 21
18.42450227827682
 31
0.0
  0
LINE
  5
3B6
330
1F
100
AcDbEntity
  8
AM_9
100
AcDbLine
 10
-0.8000000000000361
 20
17.68731966108982
 30
0.0
 11
-0.5000000000000414
 21
17.68731966108982
 31
0.0
  0
LINE
  5
3B7
330
1F
100
AcDbEntity
  8
AM_9
100
AcDbLine
 10
-0.8000000000000222
 20
19.29445448012081
 30
0.0
 11
-0.5000000000000275
 21
19.29445448012081
 31
0.0
  0
LINE
  5
3B8
330
1F
100
AcDbEntity
  8
AM_9
100
AcDbLine
 10
-0.8000000000000222
 20
18.65020980925282
 30
0.0
 11
-0.5000000000000275
 21
18.65020980925282
 31
0.0
  0
LINE
  5
3B9
330
1F
100
AcDbEntity
  8
AM_9
100
AcDbLine
 10
-0.8000000000000361
 20
18.28585138411182
 30
0.0
 11
-0.5000000000000414
 21
18.28585138411182
 31
0.0
  0
LINE
  5
3BA
330
1F
100
AcDbEntity
  8
AM_9
100
AcDbLine
 10
-51.32872080858245
 20
8.750000000002785
 30
0.0
 11
-51.32872080858245
 21
-8.749999999999037
 31
0.0
  0
LINE
  5
3BB
330
1F
100
AcDbEntity
  8
AM_9
100
AcDbLine
 10
-54.32872080858245
 20
8.750000000002585
 30
0.0
 11
-54.32872080858245
 21
-8.749999999998836
 31
0.0
  0
ARC
  5
3BC
330
1F
100
AcDbEntity
  8
AM_9
100
AcDbCircle
 10
-52.82872080858245
 20
-8.749999999998945
 30
0.0
 40
1.5
100
AcDbArc
 50
179.999999999996
 51
359.9999999999964
  0
ARC
  5
3BD
330
1F
100
AcDbEntity
  8
AM_9
100
AcDbCircle
 10
-52.82872080858245
 20
8.750000000002697
 30
0.0
 40
1.5
100
AcDbArc
 50
0.0000000000034604
 51
180.0000000000041
  0
LINE
  5
3BE
330
1F
100
AcDbEntity
  8
AM_9
100
AcDbLine
 10
-0.8000000000000222
 20
18.77504720778182
 30
0.0
 11
-0.5000000000000275
 21
18.77504720778182
 31
0.0
  0
LINE
  5
3BF
330
1F
100
AcDbEntity
  8
AM_9
100
AcDbLine
 10
-0.8000000000000361
 20
18.17249097914382
 30
0.0
 11
-0.5000000000000414
 21
18.17249097914382
 31
0.0
  0
LINE
  5
3C0
330
1F
100
AcDbEntity
  8
AM_9
100
AcDbLine
 10
7.982554466155086
 20
-11.50519153006702
 30
0.0
 11
9.479739496903113
 21
-11.90636104997592
 31
0.0
  0
LINE
  5
3C1
330
1F
100
AcDbEntity
  8
AM_9
100
AcDbLine
 10
10.13972806191454
 20
-9.443250192938795
 30
0.0
 11
8.642543031166516
 21
-9.042080673029893
 31
0.0
  0
LINE
  5
3C2
330
1F
100
AcDbEntity
  8
AM_9
100
AcDbLine
 10
7.982554466155086
 20
-11.50519153006701
 30
0.0
 11
8.642543031166518
 21
-9.042080673029892
 31
0.0
  0
LINE
  5
3C3
330
1F
100
AcDbEntity
  8
AM_9
100
AcDbLine
 10
13.19855392811621
 20
-12.90281437362068
 30
0.0
 11
14.84062783280715
 21
-13.34280675029484
 31
0.0
  0
LINE
  5
3C4
330
1F
100
AcDbEntity
  8
AM_9
100
AcDbLine
 10
15.50061639781858
 20
-10.87969589325771
 30
0.0
 11
13.85854249312764
 21
-10.43970351658355
 31
0.0
  0
LINE
  5
3C5
330
1F
100
AcDbEntity
  8
AM_9
100
AcDbLine
 10
8.642543031166573
 20
9.042080673031673
 30
0.0
 11
10.13972806191457
 21
9.443250192940562
 31
0.0
  0
LINE
  5
3C6
330
1F
100
AcDbEntity
  8
AM_9
100
AcDbLine
 10
9.47973949690315
 20
11.90636104997769
 30
0.0
 11
7.98255446615515
 21
11.5051915300688
 31
0.0
  0
LINE
  5
3C7
330
1F
100
AcDbEntity
  8
AM_9
100
AcDbLine
 10
8.64254303116657
 20
9.04208067303168
 30
0.0
 11
7.982554466155147
 21
11.50519153006881
 31
0.0
  0
LINE
  5
3C8
330
1F
100
AcDbEntity
  8
AM_9
100
AcDbLine
 10
13.85854249312759
 20
10.43970351658529
 30
0.0
 11
15.5006163978186
 21
10.87969589325946
 31
0.0
  0
LINE
  5
3C9
330
1F
100
AcDbEntity
  8
AM_9
100
AcDbLine
 10
14.84062783280718
 20
13.34280675029659
 30
0.0
 11
13.19855392811617
 21
12.90281437362241
 31
0.0
  0
LINE
  5
3CA
330
1F
100
AcDbEntity
  8
AM_9
100
AcDbLine
 10
-0.8000000000000361
 20
17.62602224440282
 30
0.0
 11
-0.5000000000000414
 21
17.62602224440282
 31
0.0
  0
LINE
  5
3CB
330
1F
100
AcDbEntity
  8
AM_9
100
AcDbLine
 10
-0.8000000000000222
 20
18.87782325834882
 30
0.0
 11
-0.5000000000000275
 21
18.87782325834882
 31
0.0
  0
LINE
  5
3CC
330
1F
100
AcDbEntity
  8
AM_9
100
AcDbLine
 10
-0.8000000000000222
 20
19.37139215559682
 30
0.0
 11
-0.5000000000000275
 21
19.37139215559682
 31
0.0
  0
LINE
  5
3CD
330
1F
100
AcDbEntity
  8
AM_9
100
AcDbLine
 10
-10.50000000000043
 20
9.900000000001759
 30
0.0
 11
-10.50000000000042
 21
-9.899999999998402
 31
0.0
  0
ARC
  5
3CE
330
1F
100
AcDbEntity
  8
AM_9
100
AcDbCircle
 10
-10.50000000000042
 20
-10.39999999999842
 30
0.0
 40
0.5000000000000018
100
AcDbArc
 50
90.0000000000002
 51
179.9999999999998
  0
ARC
  5
3CF
330
1F
100
AcDbEntity
  8
AM_9
100
AcDbCircle
 10
-10.50000000000043
 20
10.40000000000178
 30
0.0
 40
0.5000000000000018
100
AcDbArc
 50
180.0000000000002
 51
269.9999999999998
  0
LINE
  5
3D0
330
1F
100
AcDbEntity
  8
AM_9
100
AcDbLine
 10
-0.8000000000000361
 20
18.08492937178282
 30
0.0
 11
-0.5000000000000414
 21
18.08492937178282
 31
0.0
  0
LINE
  5
3D1
330
1F
100
AcDbEntity
  8
AM_9
100
AcDbLine
 10
-0.8000000000000222
 20
18.95841350645682
 30
0.0
 11
-0.5000000000000275
 21
18.95841350645682
 31
0.0
  0
LINE
  5
3D2
330
1F
100
AcDbEntity
  8
AM_9
100
AcDbLine
 10
-0.8000000000000361
 20
17.59537401289581
 30
0.0
 11
-0.5000000000000414
 21
17.59537401289581
 31
0.0
  0
ARC
  5
3D3
330
1F
100
AcDbEntity
  8
AM_0
100
AcDbCircle
 10
-40.82872080858256
 20
-10.49999999999971
 30
0.0
 40
1.5
100
AcDbArc
 50
359.9999999999957
 51
179.9999999999964
  0
ARC
  5
3D4
330
1F
100
AcDbEntity
  8
AM_0
100
AcDbCircle
 10
-40.82872080858256
 20
10.50000000000349
 30
0.0
 40
1.5
100
AcDbArc
 50
180.0000000000035
 51
0.0000000000043425
  0
ARC
  5
3D5
330
1F
100
AcDbEntity
  8
AM_9
100
AcDbCircle
 10
-40.82872080858255
 20
-10.49999999999971
 30
0.0
 40
2.499999999999993
100
AcDbArc
 50
359.9999999999967
 51
179.9999999999947
  0
ARC
  5
3D6
330
1F
100
AcDbEntity
  8
AM_9
100
AcDbCircle
 10
-40.82872080858256
 20
10.50000000000349
 30
0.0
 40
2.5
100
AcDbArc
 50
180.0000000000053
 51
0.000000000003379
  0
LINE
  5
3D7
330
1F
100
AcDbEntity
  8
AM_9
100
AcDbLine
 10
-0.8000000000000361
 20
18.02621641249381
 30
0.0
 11
-0.5000000000000414
 21
18.02621641249381
 31
0.0
  0
LINE
  5
3D8
330
1F
100
AcDbEntity
  8
AM_9
100
AcDbLine
 10
-0.8000000000000222
 20
19.41755523771882
 30
0.0
 11
-0.5000000000000275
 21
19.41755523771882
 31
0.0
  0
LWPOLYLINE
  5
3D9
330
1F
100
AcDbEntity
  8
AM_9
100
AcDbPolyline
 90
        6
 70
     0
 43
0.0
 10
14.6531243970516
 20
-13.07066443743697
 10
14.55957898579996
 20
-13.21165948789335
 10
14.4501918732807
 20
-13.26559038421046
 10
14.30438445363683
 20
-13.27924842900712
 10
14.15140425359071
 20
-13.25962992363552
 10
14.09036038595318
 20
-13.24506550235444
  0
LWPOLYLINE
  5
3DA
330
1F
100
AcDbEntity
  8
AM_9
100
AcDbPolyline
 90
        6
 70
     0
 43
0.0
 10
14.80199510524013
 20
-10.58920857354494
 10
14.94672933425431
 20
-10.63904109318843
 10
15.06903300037524
 20
-10.7059074415313
 10
15.1562208418963
 20
-10.78846978966089
 10
15.20247652907056
 20
-10.88916092427099
 10
15.20216250272774
 20
-11.02162633176035
  0
LINE
  5
3DB
330
1F
100
AcDbEntity
  8
AM_9
100
AcDbLine
 10
14.83440631325026
 20
-10.46824829851648
 30
0.0
 11
14.15825823484766
 21
-10.28707496694465
 31
0.0
  0
LINE
  5
3DC
330
1F
100
AcDbEntity
  8
AM_9
100
AcDbLine
 10
13.38180109954009
 20
-13.18485244581185
 30
0.0
 11
14.05794917794267
 21
-13.36602577738368
 31
0.0
  0
LWPOLYLINE
  5
3DD
330
1F
100
AcDbEntity
  8
AM_9
100
AcDbPolyline
 90
        6
 70
     0
 43
0.0
 10
15.20216250272802
 20
11.02162633176147
 10
15.1916473254049
 20
10.85274833063277
 10
15.12388075527515
 20
10.75134924811365
 10
15.00443684820163
 20
10.66661732453178
 10
14.86214285599985
 20
10.60711734854479
 10
14.80199510524047
 20
10.58920857354648
  0
LWPOLYLINE
  5
3DE
330
1F
100
AcDbEntity
  8
AM_9
100
AcDbPolyline
 90
        6
 70
     0
 43
0.0
 10
14.09036038595315
 20
13.24506550235595
 10
14.2406201648981
 20
13.27427638891755
 10
14.37997142090619
 20
13.27752026565473
 10
14.49675948062934
 20
13.24961309553892
 10
14.58716364809676
 20
13.18553985861777
 10
14.65312439705158
 20
13.0706644374381
  0
LINE
  5
3DF
330
1F
100
AcDbEntity
  8
AM_9
100
AcDbLine
 10
14.05794917794292
 20
13.36602577738483
 30
0.0
 11
13.38180109954012
 21
13.18485244581295
 31
0.0
  0
LINE
  5
3E0
330
1F
100
AcDbEntity
  8
AM_9
100
AcDbLine
 10
14.15825823484768
 20
10.28707496694574
 30
0.0
 11
14.83440631325038
 21
10.4682482985176
 31
0.0
  0
LINE
  5
3E1
330
1F
100
AcDbEntity
  8
AM_9
100
AcDbLine
 10
4.500000000001864
 20
-3.199999999999259
 30
0.0
 11
0.0000000000018603
 21
-3.199999999999273
 31
0.0
  0
LINE
  5
3E2
330
1F
100
AcDbEntity
  8
AM_9
100
AcDbLine
 10
4.500000000001864
 20
-6.999999999999257
 30
0.0
 11
4.500000000001864
 21
-2.499999999999253
 31
0.0
  0
LINE
  5
3E3
330
1F
100
AcDbEntity
  8
AM_9
100
AcDbLine
 10
0.0000000000018603
 20
-5.999999999999256
 30
0.0
 11
4.500000000001864
 21
-5.999999999999242
 31
0.0
  0
LINE
  5
3E4
330
1F
100
AcDbEntity
  8
AM_9
100
AcDbLine
 10
4.500000000001837
 20
7.000000000000728
 30
0.0
 11
4.500000000001892
 21
2.500000000000738
 31
0.0
  0
LINE
  5
3E5
330
1F
100
AcDbEntity
  8
AM_9
100
AcDbLine
 10
0.000000000001888
 20
6.000000000000727
 30
0.0
 11
4.500000000001892
 21
6.000000000000671
 31
0.0
  0
LINE
  5
3E6
330
1F
100
AcDbEntity
  8
AM_9
100
AcDbLine
 10
4.500000000001892
 20
3.200000000000647
 30
0.0
 11
0.000000000001888
 21
3.20000000000073
 31
0.0
  0
LINE
  5
3E7
330
1F
100
AcDbEntity
  8
AM_9
100
AcDbLine
 10
24.50000000000185
 20
7.000000000000714
 30
0.0
 11
24.50000000000185
 21
4.000000000000711
 31
0.0
  0
LINE
  5
3E8
330
1F
100
AcDbEntity
  8
AM_9
100
AcDbLine
 10
20.50000000000185
 20
4.000000000000642
 30
0.0
 11
20.50000000000185
 21
9.500000000000744
 31
0.0
  0
LINE
  5
3E9
330
1F
100
AcDbEntity
  8
AM_9
100
AcDbLine
 10
20.50000000000185
 20
9.500000000000744
 30
0.0
 11
22.83667504193082
 21
9.500000000000744
 31
0.0
  0
LINE
  5
3EA
330
1F
100
AcDbEntity
  8
AM_9
100
AcDbLine
 10
26.00000000000188
 20
7.000000000000714
 30
0.0
 11
13.58703998943289
 21
7.000000000000742
 31
0.0
  0
LINE
  5
3EB
330
1F
100
AcDbEntity
  8
AM_9
100
AcDbLine
 10
4.500000000001864
 20
-3.299999999999262
 30
0.0
 11
0.0000000000018603
 21
-3.299999999999262
 31
0.0
  0
LINE
  5
3EC
330
1F
100
AcDbEntity
  8
AM_9
100
AcDbLine
 10
20.50000000000185
 20
-9.499999999999273
 30
0.0
 11
22.83667504193085
 21
-9.499999999999273
 31
0.0
  0
LINE
  5
3ED
330
1F
100
AcDbEntity
  8
AM_9
100
AcDbLine
 10
0.000000000001888
 20
3.300000000000733
 30
0.0
 11
4.500000000001892
 21
3.300000000000733
 31
0.0
  0
LINE
  5
3EE
330
1F
100
AcDbEntity
  8
AM_9
100
AcDbLine
 10
23.00000000000185
 20
-9.49999999999937
 30
0.0
 11
26.00000000000185
 21
-9.499999999999273
 31
0.0
  0
LINE
  5
3EF
330
1F
100
AcDbEntity
  8
AM_9
100
AcDbLine
 10
21.50000000000171
 20
-6.999999999999271
 30
0.0
 11
21.50000000000179
 21
-8.633974596215275
 31
0.0
  0
LINE
  5
3F0
330
1F
100
AcDbEntity
  8
AM_9
100
AcDbLine
 10
21.50000000000202
 20
-8.633974596214996
 30
0.0
 11
23.00000000000185
 21
-9.4999999999993
 31
0.0
  0
LINE
  5
3F1
330
1F
100
AcDbEntity
  8
AM_9
100
AcDbLine
 10
20.50000000000185
 20
-3.999999999999268
 30
0.0
 11
20.50000000000185
 21
-9.499999999999273
 31
0.0
  0
LINE
  5
3F2
330
1F
100
AcDbEntity
  8
AM_9
100
AcDbLine
 10
26.00000000000185
 20
-6.999999999999271
 30
0.0
 11
13.58703998943286
 21
-6.999999999999257
 31
0.0
  0
LINE
  5
3F3
330
1F
100
AcDbEntity
  8
AM_9
100
AcDbLine
 10
24.50000000000185
 20
-6.999999999999271
 30
0.0
 11
24.50000000000185
 21
-3.999999999999268
 31
0.0
  0
LINE
  5
3F4
330
1F
100
AcDbEntity
  8
AM_9
100
AcDbLine
 10
26.00000000000188
 20
9.500000000000744
 30
0.0
 11
23.00000000000188
 21
9.50000000000066
 31
0.0
  0
LINE
  5
3F5
330
1F
100
AcDbEntity
  8
AM_9
100
AcDbLine
 10
23.00000000000183
 20
9.500000000000814
 30
0.0
 11
21.50000000000213
 21
8.633974596216564
 31
0.0
  0
LINE
  5
3F6
330
1F
100
AcDbEntity
  8
AM_9
100
AcDbLine
 10
21.50000000000216
 20
8.633974596216538
 30
0.0
 11
21.50000000000205
 21
7.000000000000714
 31
0.0
  0
LINE
  5
3F7
330
1F
100
AcDbEntity
  8
AM_9
100
AcDbLine
 10
-0.8000000000000361
 20
17.99601163954381
 30
0.0
 11
-0.5000000000000414
 21
17.99601163954381
 31
0.0
  0
LINE
  5
3F8
330
1F
100
AcDbEntity
  8
AM_9
100
AcDbLine
 10
-0.8000000000000361
 20
17.99685945601183
 30
0.0
 11
-0.5000000000000414
 21
17.99685945601182
 31
0.0
  0
LINE
  5
3F9
330
1F
100
AcDbEntity
  8
AM_9
100
AcDbLine
 10
-0.8000000000000222
 20
19.01606836409282
 30
0.0
 11
-0.5000000000000275
 21
19.01606836409282
 31
0.0
  0
LINE
  5
3FA
330
1F
100
AcDbEntity
  8
AM_9
100
AcDbLine
 10
-0.8000000000000222
 20
19.05930843443582
 30
0.0
 11
-0.5000000000000275
 21
19.05930843443582
 31
0.0
  0
LINE
  5
3FB
330
1F
100
AcDbEntity
  8
AM_9
100
AcDbLine
 10
-0.8000000000000222
 20
19.43294324965182
 30
0.0
 11
-0.5000000000000275
 21
19.43294324965182
 31
0.0
  0
LINE
  5
3FC
330
1F
100
AcDbEntity
  8
AM_9
100
AcDbLine
 10
-0.8000000000000222
 20
19.06219091505681
 30
0.0
 11
-0.5000000000000275
 21
19.06219091505681
 31
0.0
  0
LINE
  5
3FD
330
1F
100
AcDbEntity
  8
AM_9
100
AcDbLine
 10
9.447387116265325
 20
-12.02710177826197
 30
0.0
 11
10.17208044255239
 21
-9.322509464652565
 31
0.0
  0
LINE
  5
3FE
330
1F
100
AcDbEntity
  8
AM_9
100
AcDbLine
 10
9.44738711626543
 20
-12.02710177826271
 30
0.0
 11
9.54998561573736
 21
-12.41693962648437
 31
0.0
  0
LINE
  5
3FF
330
1F
100
AcDbEntity
  8
AM_9
100
AcDbLine
 10
10.45585227359618
 20
-9.03619923447264
 30
0.0
 11
10.1720804425525
 21
-9.322509464653297
 31
0.0
  0
LINE
  5
400
330
1F
100
AcDbEntity
  8
AM_9
100
AcDbLine
 10
10.45585227359626
 20
-9.036199234472388
 30
0.0
 11
9.54998561573743
 21
-12.41693962648412
 31
0.0
  0
LINE
  5
401
330
1F
100
AcDbEntity
  8
AM_9
100
AcDbLine
 10
9.549985615737475
 20
-12.41693962648396
 30
0.0
 11
12.8824297164346
 21
-13.30986533208761
 31
0.0
  0
LINE
  5
402
330
1F
100
AcDbEntity
  8
AM_9
100
AcDbLine
 10
13.78829637429342
 20
-9.929124940075875
 30
0.0
 11
10.4558522735963
 21
-9.036199234472218
 31
0.0
  0
LINE
  5
403
330
1F
100
AcDbEntity
  8
AM_9
100
AcDbLine
 10
13.89089487376541
 20
-10.31896278829756
 30
0.0
 11
13.16620154747835
 21
-13.02355510190697
 31
0.0
  0
LINE
  5
404
330
1F
100
AcDbEntity
  8
AM_9
100
AcDbLine
 10
12.88242971643446
 20
-13.30986533208813
 30
0.0
 11
13.78829637429328
 21
-9.929124940076395
 31
0.0
  0
LINE
  5
405
330
1F
100
AcDbEntity
  8
AM_9
100
AcDbLine
 10
13.89089487376531
 20
-10.31896278829781
 30
0.0
 11
13.78829637429338
 21
-9.929124940076143
 31
0.0
  0
LINE
  5
406
330
1F
100
AcDbEntity
  8
AM_9
100
AcDbLine
 10
12.88242971643455
 20
-13.30986533208788
 30
0.0
 11
13.16620154747824
 21
-13.02355510190722
 31
0.0
  0
LINE
  5
407
330
1F
100
AcDbEntity
  8
AM_9
100
AcDbLine
 10
10.17208044255242
 20
9.32250946465434
 30
0.0
 11
9.447387116265357
 21
12.02710177826375
 31
0.0
  0
LINE
  5
408
330
1F
100
AcDbEntity
  8
AM_9
100
AcDbLine
 10
10.17208044255252
 20
9.322509464654283
 30
0.0
 11
10.45585227359621
 21
9.036199234473623
 31
0.0
  0
LINE
  5
409
330
1F
100
AcDbEntity
  8
AM_9
100
AcDbLine
 10
9.54998561573739
 20
12.41693962648536
 30
0.0
 11
9.44738711626546
 21
12.0271017782637
 31
0.0
  0
LINE
  5
40A
330
1F
100
AcDbEntity
  8
AM_9
100
AcDbLine
 10
13.16620154747838
 20
13.02355510190846
 30
0.0
 11
13.89089487376544
 21
10.31896278829904
 31
0.0
  0
LINE
  5
40B
330
1F
100
AcDbEntity
  8
AM_9
100
AcDbLine
 10
13.16620154747828
 20
13.0235551019084
 30
0.0
 11
12.88242971643459
 21
13.30986533208906
 31
0.0
  0
LINE
  5
40C
330
1F
100
AcDbEntity
  8
AM_9
100
AcDbLine
 10
13.78829637429341
 20
9.929124940077322
 30
0.0
 11
13.89089487376534
 21
10.31896278829899
 31
0.0
  0
LINE
  5
40D
330
1F
100
AcDbEntity
  8
AM_9
100
AcDbLine
 10
13.7882963742933
 20
9.92912494007738
 30
0.0
 11
12.88242971643449
 21
13.30986533208912
 31
0.0
  0
LINE
  5
40E
330
1F
100
AcDbEntity
  8
AM_9
100
AcDbLine
 10
9.549985615737462
 20
12.41693962648542
 30
0.0
 11
10.45585227359628
 21
9.036199234473676
 31
0.0
  0
LINE
  5
40F
330
1F
100
AcDbEntity
  8
AM_9
100
AcDbLine
 10
10.45585227359627
 20
9.036199234473699
 30
0.0
 11
13.78829637429332
 21
9.929124940077324
 31
0.0
  0
LINE
  5
410
330
1F
100
AcDbEntity
  8
AM_9
100
AcDbLine
 10
12.8824297164345
 20
13.30986533208907
 30
0.0
 11
9.549985615737457
 21
12.41693962648544
 31
0.0
  0
LINE
  5
411
330
1F
100
AcDbEntity
  8
AM_9
100
AcDbLine
 10
-0.8000000000000361
 20
17.59521570295982
 30
0.0
 11
-0.5000000000000414
 21
17.59521570295982
 31
0.0
  0
LINE
  5
412
330
1F
100
AcDbEntity
  8
AM_9
100
AcDbLine
 10
-0.8000000000000361
 20
18.03832140059182
 30
0.0
 11
-0.5000000000000414
 21
18.03832140059182
 31
0.0
  0
LINE
  5
413
330
1F
100
AcDbEntity
  8
AM_0
100
AcDbLine
 10
25.00000000000185
 20
-1.999999999999268
 30
0.0
 11
26.00000000000185
 21
-1.999999999999266
 31
0.0
  0
LINE
  5
414
330
1F
100
AcDbEntity
  8
AM_9
100
AcDbLine
 10
23.00000000000185
 20
-1.999999999999266
 30
0.0
 11
25.00000000000185
 21
-1.999999999999268
 31
0.0
  0
LINE
  5
415
330
1F
100
AcDbEntity
  8
AM_9
100
AcDbLine
 10
25.00000000000186
 20
2.000000000000723
 30
0.0
 11
23.00000000000188
 21
2.000000000000723
 31
0.0
  0
LINE
  5
416
330
1F
100
AcDbEntity
  8
AM_0
100
AcDbLine
 10
26.00000000000188
 20
2.000000000000723
 30
0.0
 11
25.00000000000186
 21
2.000000000000723
 31
0.0
  0
LINE
  5
417
330
1F
100
AcDbEntity
  8
AM_9
100
AcDbLine
 10
-19.40000000000042
 20
10.88836434037981
 30
0.0
 11
-20.90290886567794
 21
10.89710800838169
 31
0.0
  0
LINE
  5
418
330
1F
100
AcDbEntity
  8
AM_0
100
AcDbLine
 10
-11.50000000000004
 20
10.84240348487325
 30
0.0
 11
-19.40000000000042
 21
10.88836434037981
 31
0.0
  0
LINE
  5
419
330
1F
100
AcDbEntity
  8
AM_9
100
AcDbLine
 10
-11.00000000000043
 20
10.83949456996778
 30
0.0
 11
-11.50000000000004
 21
10.84240348487325
 31
0.0
  0
LINE
  5
41A
330
1F
100
AcDbEntity
  8
AM_9
100
AcDbLine
 10
-11.50000000000005
 20
-10.84240348486989
 30
0.0
 11
-11.00000000000042
 21
-10.83949456996442
 31
0.0
  0
LINE
  5
41B
330
1F
100
AcDbEntity
  8
AM_0
100
AcDbLine
 10
-19.40000000000042
 20
-10.88836434037645
 30
0.0
 11
-11.50000000000005
 21
-10.84240348486989
 31
0.0
  0
LINE
  5
41C
330
1F
100
AcDbEntity
  8
AM_9
100
AcDbLine
 10
-20.90290886567794
 20
-10.89710800837834
 30
0.0
 11
-19.40000000000042
 21
-10.88836434037645
 31
0.0
  0
LINE
  5
41D
330
1F
100
AcDbEntity
  8
AM_9
100
AcDbLine
 10
-11.00000000000043
 20
10.83949456996777
 30
0.0
 11
-11.00000000000042
 21
-10.83949456996442
 31
0.0
  0
LINE
  5
41E
330
1F
100
AcDbEntity
  8
AM_9
100
AcDbLine
 10
-0.0000000000000548
 20
-2.337939901449301
 30
0.0
 11
-9.500000000000064
 21
-2.33793990144926
 31
0.0
  0
LINE
  5
41F
330
1F
100
AcDbEntity
  8
AM_9
100
AcDbLine
 10
-7.500000000000076
 20
-11.107570883721
 30
0.0
 11
-9.500000000000577
 21
-11.10757088372102
 31
0.0
  0
LINE
  5
420
330
1F
100
AcDbEntity
  8
AM_9
100
AcDbLine
 10
-6.700000000000081
 20
-9.656183252194458
 30
0.0
 11
-7.500000000000076
 21
-9.656183252194458
 31
0.0
  0
LINE
  5
421
330
1F
100
AcDbEntity
  8
AM_9
100
AcDbLine
 10
-6.700000000000066
 20
-7.167081848002951
 30
0.0
 11
-9.500000000000314
 21
-7.167081848002965
 31
0.0
  0
LINE
  5
422
330
1F
100
AcDbEntity
  8
AM_9
100
AcDbLine
 10
-7.500000000000076
 20
-9.133545293820225
 30
0.0
 11
-9.500000000000078
 21
-9.133545293820266
 31
0.0
  0
LINE
  5
423
330
1F
100
AcDbEntity
  8
AM_9
100
AcDbLine
 10
-9.500000000000577
 20
-11.14999999999796
 30
0.0
 11
-0.0000000000000833
 21
-11.14999999999797
 31
0.0
  0
LINE
  5
424
330
1F
100
AcDbEntity
  8
AM_9
100
AcDbLine
 10
-7.500000000000062
 20
11.10757088372492
 30
0.0
 11
-9.499999999999066
 21
11.10757088372492
 31
0.0
  0
LINE
  5
425
330
1F
100
AcDbEntity
  8
AM_9
100
AcDbLine
 10
-6.700000000000067
 20
9.656183252198622
 30
0.0
 11
-7.500000000000062
 21
9.656183252198622
 31
0.0
  0
LINE
  5
426
330
1F
100
AcDbEntity
  8
AM_9
100
AcDbLine
 10
-6.700000000000082
 20
7.167081848007017
 30
0.0
 11
-9.500000000000078
 21
7.167081848007017
 31
0.0
  0
LINE
  5
427
330
1F
100
AcDbEntity
  8
AM_9
100
AcDbLine
 10
-0.000000000000041
 20
2.337939901453132
 30
0.0
 11
-9.500000000000078
 21
2.337939901453132
 31
0.0
  0
LINE
  5
428
330
1F
100
AcDbEntity
  8
AM_9
100
AcDbLine
 10
-7.500000000000062
 20
11.10757088372512
 30
0.0
 11
-7.500000000000076
 21
-11.107570883721
 31
0.0
  0
LINE
  5
429
330
1F
100
AcDbEntity
  8
AM_9
100
AcDbLine
 10
-7.500000000000062
 20
9.133545293824236
 30
0.0
 11
-9.499999999999066
 21
9.133545293824236
 31
0.0
  0
LINE
  5
42A
330
1F
100
AcDbEntity
  8
AM_9
100
AcDbLine
 10
-0.0000000000000418
 20
11.15000000000203
 30
0.0
 11
-9.500000000000064
 21
11.15000000000203
 31
0.0
  0
LINE
  5
42B
330
1F
100
AcDbEntity
  8
AM_9
100
AcDbLine
 10
-0.8000000000000361
 20
18.09473314375581
 30
0.0
 11
-0.5000000000000414
 21
18.09473314375581
 31
0.0
  0
LINE
  5
42C
330
1F
100
AcDbEntity
  8
AM_9
100
AcDbLine
 10
-0.8000000000000361
 20
17.62460603804281
 30
0.0
 11
-0.5000000000000414
 21
17.62460603804282
 31
0.0
  0
LINE
  5
42D
330
1F
100
AcDbEntity
  8
AM_9
100
AcDbLine
 10
-0.8000000000000361
 20
18.18232526869481
 30
0.0
 11
-0.5000000000000414
 21
18.18232526869481
 31
0.0
  0
LINE
  5
42E
330
1F
100
AcDbEntity
  8
AM_9
100
AcDbLine
 10
-0.8000000000000361
 20
18.31330194563582
 30
0.0
 11
-0.5000000000000414
 21
18.31330194563581
 31
0.0
  0
LINE
  5
42F
330
1F
100
AcDbEntity
  8
AM_9
100
AcDbLine
 10
-0.8000000000000222
 20
18.70654955000581
 30
0.0
 11
-0.5000000000000275
 21
18.70654955000581
 31
0.0
  0
LINE
  5
430
330
1F
100
AcDbEntity
  8
AM_9
100
AcDbLine
 10
-0.8000000000000222
 20
18.48311128706581
 30
0.0
 11
-0.5000000000000275
 21
18.48311128706581
 31
0.0
  0
LINE
  5
431
330
1F
100
AcDbEntity
  8
AM_9
100
AcDbLine
 10
-0.8000000000000361
 20
17.68338575453482
 30
0.0
 11
-0.5000000000000414
 21
17.68338575453482
 31
0.0
  0
LINE
  5
432
330
1F
100
AcDbEntity
  8
AM_9
100
AcDbLine
 10
17.71484620358721
 20
12.27533602138976
 30
0.0
 11
15.70563302009184
 21
12.04641509512054
 31
0.0
  0
LINE
  5
433
330
1F
100
AcDbEntity
  8
AM_9
100
AcDbLine
 10
17.45602715848518
 20
-13.24126184767729
 30
0.0
 11
15.60153703682396
 21
-12.43490659353623
 31
0.0
  0
LINE
  5
434
330
1F
100
AcDbEntity
  8
AM_9
100
AcDbLine
 10
17.71484620358685
 20
-12.27533602138854
 30
0.0
 11
15.70563302009184
 21
-12.04641509511935
 31
0.0
  0
LINE
  5
435
330
1F
100
AcDbEntity
  8
AM_9
100
AcDbLine
 10
17.4560271584849
 20
13.24126184767883
 30
0.0
 11
15.60153703682399
 21
12.43490659353785
 31
0.0
  0
LINE
  5
436
330
1F
100
AcDbEntity
  8
AM_9
100
AcDbLine
 10
-0.8000000000000361
 20
17.77089872450482
 30
0.0
 11
-0.5000000000000414
 21
17.77089872450482
 31
0.0
  0
LINE
  5
437
330
1F
100
AcDbEntity
  8
AM_9
100
AcDbLine
 10
-0.8000000000000361
 20
17.95481195540082
 30
0.0
 11
-0.5000000000000414
 21
17.95481195540082
 31
0.0
  0
LINE
  5
438
330
1F
100
AcDbEntity
  8
AM_9
100
AcDbLine
 10
-0.8000000000000361
 20
17.88648786635082
 30
0.0
 11
-0.5000000000000414
 21
17.88648786635082
 31
0.0
  0
LINE
  5
439
330
1F
100
AcDbEntity
  8
AM_9
100
AcDbLine
 10
-0.8000000000000361
 20
17.81230344862583
 30
0.0
 11
-0.5000000000000414
 21
17.81230344862583
 31
0.0
  0
LINE
  5
43A
330
1F
100
AcDbEntity
  8
AM_9
100
AcDbLine
 10
-25.82872080742316
 20
-11.24999999628182
 30
0.0
 11
-21.32872080758135
 21
-11.24999999628182
 31
0.0
  0
LINE
  5
43B
330
1F
100
AcDbEntity
  8
AM_9
100
AcDbLine
 10
-21.32872080758136
 20
11.24999999628558
 30
0.0
 11
-25.82872080742317
 21
11.24999999628558
 31
0.0
  0
LINE
  5
43C
330
1F
100
AcDbEntity
  8
AM_0
100
AcDbLine
 10
-50.32872080858245
 20
8.750000000002885
 30
0.0
 11
-50.32872080858245
 21
-8.749999999999076
 31
0.0
  0
LINE
  5
43D
330
1F
100
AcDbEntity
  8
AM_0
100
AcDbLine
 10
-55.32872080858245
 20
8.750000000002492
 30
0.0
 11
-55.32872080858245
 21
-8.749999999998808
 31
0.0
  0
ARC
  5
43E
330
1F
100
AcDbEntity
  8
AM_0
100
AcDbCircle
 10
-52.82872080858246
 20
-8.749999999998948
 30
0.0
 40
2.499999999999993
100
AcDbArc
 50
179.9999999999953
 51
359.9999999999955
  0
ARC
  5
43F
330
1F
100
AcDbEntity
  8
AM_0
100
AcDbCircle
 10
-52.82872080858245
 20
8.750000000002697
 30
0.0
 40
2.5
100
AcDbArc
 50
0.0000000000045596
 51
180.0000000000047
  0
LINE
  5
440
330
1F
100
AcDbEntity
  8
AM_9
100
AcDbLine
 10
-9.500000000000064
 20
11.15000000000203
 30
0.0
 11
-11.00190265095405
 21
11.28139945568003
 31
0.0
  0
LINE
  5
441
330
1F
100
AcDbEntity
  8
AM_9
100
AcDbLine
 10
-11.00190265095407
 20
-11.28139945567598
 30
0.0
 11
-9.500000000000577
 21
-11.14999999999802
 31
0.0
  0
LINE
  5
442
330
1F
100
AcDbEntity
  8
AM_9
100
AcDbLine
 10
-9.500000000000068
 20
11.15000000000203
 30
0.0
 11
-9.500000000000089
 21
-11.14999999999797
 31
0.0
  0
LINE
  5
443
330
1F
100
AcDbEntity
  8
AM_9
100
AcDbLine
 10
-0.8000000000000361
 20
17.6949633607358
 30
0.0
 11
-0.5000000000000414
 21
17.6949633607358
 31
0.0
  0
LINE
  5
444
330
1F
100
AcDbEntity
  8
AM_9
100
AcDbLine
 10
-0.8000000000000222
 20
18.70857706160281
 30
0.0
 11
-0.5000000000000275
 21
18.70857706160281
 31
0.0
  0
LINE
  5
445
330
1F
100
AcDbEntity
  8
AM_9
100
AcDbLine
 10
-0.8000000000000222
 20
18.57759466261582
 30
0.0
 11
-0.5000000000000275
 21
18.57759466261582
 31
0.0
  0
ARC
  5
446
330
1F
100
AcDbEntity
  8
AM_9
100
AcDbCircle
 10
-20.90000000000044
 20
-11.39709954680722
 30
0.0
 40
0.5000000000000148
100
AcDbArc
 50
90.33333333333378
 51
179.9999999999998
  0
ARC
  5
447
330
1F
100
AcDbEntity
  8
AM_9
100
AcDbCircle
 10
-20.90000000000045
 20
11.39709954681057
 30
0.0
 40
0.5000000000000107
100
AcDbArc
 50
179.9999999999994
 51
269.6666666666666
  0
LINE
  5
448
330
1F
100
AcDbEntity
  8
AM_9
100
AcDbLine
 10
-20.90290886567795
 20
10.89710800838169
 30
0.0
 11
-20.90290886567794
 21
-10.89710800837834
 31
0.0
  0
LINE
  5
449
330
1F
100
AcDbEntity
  8
AM_9
100
AcDbLine
 10
-0.8000000000000361
 20
18.32025613875082
 30
0.0
 11
-0.5000000000000414
 21
18.32025613875082
 31
0.0
  0
LINE
  5
44A
330
1F
100
AcDbEntity
  8
AM_9
100
AcDbLine
 10
-0.8000000000000361
 20
17.60279073805483
 30
0.0
 11
-0.5000000000000414
 21
17.60279073805482
 31
0.0
  0
LINE
  5
44B
330
1F
100
AcDbEntity
  8
AM_9
100
AcDbLine
 10
-0.8000000000000361
 20
18.16998472303981
 30
0.0
 11
-0.5000000000000414
 21
18.16998472303981
 31
0.0
  0
LINE
  5
44C
330
1F
100
AcDbEntity
  8
AM_9
100
AcDbLine
 10
-0.800000000000036
 20
17.53646555037182
 30
0.0
 11
-0.5000000000000413
 21
17.53646555037182
 31
0.0
  0
LINE
  5
44D
330
1F
100
AcDbEntity
  8
AM_9
100
AcDbLine
 10
-0.8000000000000361
 20
18.04858579725883
 30
0.0
 11
-0.5000000000000414
 21
18.04858579725883
 31
0.0
  0
LINE
  5
44E
330
1F
100
AcDbEntity
  8
AM_9
100
AcDbLine
 10
-0.800000000000036
 20
17.97000207991282
 30
0.0
 11
-0.5000000000000413
 21
17.97000207991282
 31
0.0
  0
LINE
  5
44F
330
1F
100
AcDbEntity
  8
AM_9
100
AcDbLine
 10
-0.800000000000036
 20
17.49667158217083
 30
0.0
 11
-0.5000000000000413
 21
17.49667158217083
 31
0.0
  0
LINE
  5
450
330
1F
100
AcDbEntity
  8
AM_9
100
AcDbLine
 10
-0.8000000000000221
 20
19.12089338392882
 30
0.0
 11
-0.5000000000000274
 21
19.12089338392882
 31
0.0
  0
LINE
  5
451
330
1F
100
AcDbEntity
  8
AM_9
100
AcDbLine
 10
-0.800000000000036
 20
17.89141836256682
 30
0.0
 11
-0.5000000000000413
 21
17.89141836256682
 31
0.0
  0
LINE
  5
452
330
1F
100
AcDbEntity
  8
AM_9
100
AcDbLine
 10
-0.800000000000036
 20
17.91761198134082
 30
0.0
 11
-0.5000000000000413
 21
17.91761198134082
 31
0.0
  0
LINE
  5
453
330
1F
100
AcDbEntity
  8
AM_9
100
AcDbLine
 10
-11.00190265095414
 20
11.28139945568003
 30
0.0
 11
-11.49999999999998
 21
11.82497732705382
 31
0.0
  0
LINE
  5
454
330
1F
100
AcDbEntity
  8
AM_9
100
AcDbLine
 10
-11.50000000000001
 20
-11.82497732704977
 30
0.0
 11
-11.00190265095416
 21
-11.28139945567597
 31
0.0
  0
LINE
  5
455
330
1F
100
AcDbEntity
  8
AM_9
100
AcDbLine
 10
-11.00190265095407
 20
-11.28139945567597
 30
0.0
 11
-11.00190265095405
 21
11.28139945568003
 31
0.0
  0
LINE
  5
456
330
1F
100
AcDbEntity
  8
AM_9
100
AcDbLine
 10
-43.32872080858256
 20
10.50000000000326
 30
0.0
 11
-43.32872080858256
 21
-10.49999999999955
 31
0.0
  0
LINE
  5
457
330
1F
100
AcDbEntity
  8
AM_9
100
AcDbLine
 10
-46.32872080858255
 20
10.50000000000305
 30
0.0
 11
-46.32872080858255
 21
-10.49999999999935
 31
0.0
  0
ARC
  5
458
330
1F
100
AcDbEntity
  8
AM_9
100
AcDbCircle
 10
-44.82872080858256
 20
-10.49999999999944
 30
0.0
 40
1.5
100
AcDbArc
 50
179.9999999999961
 51
359.9999999999961
  0
ARC
  5
459
330
1F
100
AcDbEntity
  8
AM_9
100
AcDbCircle
 10
-44.82872080858256
 20
10.50000000000315
 30
0.0
 40
1.5
100
AcDbArc
 50
0.0000000000040033
 51
180.0000000000038
  0
LINE
  5
45A
330
1F
100
AcDbEntity
  8
AM_9
100
AcDbLine
 10
-0.800000000000036
 20
17.90148916334782
 30
0.0
 11
-0.5000000000000413
 21
17.90148916334782
 31
0.0
  0
LINE
  5
45B
330
1F
100
AcDbEntity
  8
AM_0
100
AcDbLine
 10
-0.8000000000000221
 20
19.50091400236782
 30
0.0
 11
-0.5000000000000274
 21
19.50091400236782
 31
0.0
  0
LINE
  5
45C
330
1F
100
AcDbEntity
  8
AM_9
100
AcDbLine
 10
-0.8000000000000221
 20
19.08596267790481
 30
0.0
 11
-0.5000000000000274
 21
19.08596267790481
 31
0.0
  0
LWPOLYLINE
  5
45D
330
1F
100
AcDbEntity
  8
AM_9
100
AcDbPolyline
 90
        6
 70
     0
 43
0.0
 10
16.95146208482051
 20
-15.1243243383176
 10
16.87933584685847
 20
-15.2818062068474
 10
16.75892343486607
 20
-15.40642772693591
 10
16.60548652686311
 20
-15.48247312300295
 10
16.43819149710432
 20
-15.50223683337983
 10
16.33687670778577
 20
-15.48613653842303
  0
LINE
  5
45E
330
1F
100
AcDbEntity
  8
AM_9
100
AcDbLine
 10
18.21941127725157
 20
-10.39227353074854
 30
0.0
 11
16.95146208482051
 21
-15.1243243383176
 31
0.0
  0
LWPOLYLINE
  5
45F
330
1F
100
AcDbEntity
  8
AM_9
100
AcDbPolyline
 90
        6
 70
     0
 43
0.0
 10
17.8680708279979
 20
-9.771642285540144
 10
18.01894902847079
 20
-9.841003770173383
 10
18.13839750995655
 20
-9.956315527082968
 10
18.21383952891428
 20
-10.10524636217064
 10
18.23689669051651
 20
-10.27287764205893
 10
18.21941127725157
 20
-10.39227353074854
  0
LINE
  5
460
330
1F
100
AcDbEntity
  8
AM_9
100
AcDbLine
 10
16.33687670778577
 20
-15.48613653842303
 30
0.0
 11
15.37095088149573
 21
-15.22731749332072
 31
0.0
  0
LINE
  5
461
330
1F
100
AcDbEntity
  8
AM_9
100
AcDbLine
 10
16.902145001709
 20
-9.512823240437813
 30
0.0
 11
17.8680708279979
 21
-9.771642285540144
 31
0.0
  0
LINE
  5
462
330
1F
100
AcDbEntity
  8
AM_9
100
AcDbLine
 10
16.91300507691048
 20
-9.472292888011857
 30
0.0
 11
15.94707925062043
 21
-9.213473842909073
 31
0.0
  0
LINE
  5
463
330
1F
100
AcDbEntity
  8
AM_9
100
AcDbLine
 10
14.3941649800053
 20
-15.00902880064348
 30
0.0
 11
15.36009080629534
 21
-15.26784784574626
 31
0.0
  0
LINE
  5
464
330
1F
100
AcDbEntity
  8
AM_9
100
AcDbLine
 10
14.3941649800053
 20
-15.00902880064348
 30
0.0
 11
15.94707925062043
 21
-9.213473842909073
 31
0.0
  0
LINE
  5
465
330
1F
100
AcDbEntity
  8
AM_9
100
AcDbLine
 10
17.86807082799793
 20
9.771642285541727
 30
0.0
 11
16.90214500170889
 21
9.512823240439214
 31
0.0
  0
LINE
  5
466
330
1F
100
AcDbEntity
  8
AM_9
100
AcDbLine
 10
15.3709508814959
 20
15.22731749332182
 30
0.0
 11
16.3368767077858
 21
15.48613653842443
 31
0.0
  0
LINE
  5
467
330
1F
100
AcDbEntity
  8
AM_9
100
AcDbLine
 10
15.36009080629525
 20
15.26784784574798
 30
0.0
 11
14.39416498000534
 21
15.00902880064523
 31
0.0
  0
LINE
  5
468
330
1F
100
AcDbEntity
  8
AM_9
100
AcDbLine
 10
15.94707925062045
 20
9.213473842910817
 30
0.0
 11
16.91300507691038
 21
9.472292888013568
 31
0.0
  0
LINE
  5
469
330
1F
100
AcDbEntity
  8
AM_9
100
AcDbLine
 10
15.94707925062045
 20
9.213473842910817
 30
0.0
 11
14.39416498000534
 21
15.00902880064523
 31
0.0
  0
LWPOLYLINE
  5
46A
330
1F
100
AcDbEntity
  8
AM_9
100
AcDbPolyline
 90
        6
 70
     0
 43
0.0
 10
18.21941127725171
 20
10.39227353074987
 10
18.23568905716241
 20
10.21982711298641
 10
18.19371960949048
 20
10.05169550473528
 10
18.09886204731545
 20
9.909119805898772
 10
17.96386215680601
 20
9.808356415759834
 10
17.86807082799793
 20
9.771642285541727
  0
LINE
  5
46B
330
1F
100
AcDbEntity
  8
AM_9
100
AcDbLine
 10
16.95146208482059
 20
15.12432433831888
 30
0.0
 11
18.21941127725171
 21
10.39227353074987
 31
0.0
  0
LWPOLYLINE
  5
46C
330
1F
100
AcDbEntity
  8
AM_9
100
AcDbPolyline
 90
        6
 70
     0
 43
0.0
 10
16.3368767077858
 20
15.48613653842443
 10
16.50222180458935
 20
15.50150683092398
 10
16.66332310245427
 20
15.46136816082815
 10
16.80312322492827
 20
15.37011128371423
 10
16.90690695255909
 20
15.23646691766314
 10
16.95146208482059
 20
15.12432433831888
  0
LINE
  5
46D
330
1F
100
AcDbEntity
  8
AM_0
100
AcDbLine
 10
-0.800000000000036
 20
17.48340692610384
 30
0.0
 11
-0.5000000000000413
 21
17.48340692610384
 31
0.0
  0
LINE
  5
46E
330
1F
100
AcDbEntity
  8
AM_9
100
AcDbLine
 10
-0.800000000000036
 20
17.94152536482482
 30
0.0
 11
-0.5000000000000413
 21
17.94152536482482
 31
0.0
  0
LINE
  5
46F
330
1F
100
AcDbEntity
  8
AM_9
100
AcDbLine
 10
-0.8000000000000221
 20
19.03158750624381
 30
0.0
 11
-0.5000000000000274
 21
19.03158750624381
 31
0.0
  0
LINE
  5
470
330
1F
100
AcDbEntity
  8
AM_9
100
AcDbLine
 10
20.62234607357377
 20
-10.31091638545853
 30
0.0
 11
17.91775375996477
 21
-9.586223059171575
 31
0.0
  0
LINE
  5
471
330
1F
100
AcDbEntity
  8
AM_9
100
AcDbLine
 10
16.28719377581886
 20
-15.67155576479228
 30
0.0
 11
18.99178608942787
 21
-16.39624909107923
 31
0.0
  0
LWPOLYLINE
  5
472
330
1F
100
AcDbEntity
  8
AM_9
100
AcDbPolyline
 90
       13
 70
     0
 43
0.0
 10
26.00000000000185
 20
-11.50731925811981
 10
25.01237068733223
 20
-11.6037833160682
 10
24.1321736630302
 20
-11.70701940302658
 10
23.3492646272041
 20
-11.81776658228811
 10
22.65544135927232
 20
-11.93687552033184
 10
22.0441593548661
 20
-12.06533037927115
 10
21.51032549156922
 20
-12.20427607313426
 10
21.05015597483382
 20
-12.35505248646344
 10
20.66109018575285
 20
-12.5192378223505
 10
20.34175656737437
 20
-12.69870405380899
 10
20.09199094181753
 20
-12.89568861355513
 10
19.91291222512179
 20
-13.11288815466975
 10
19.80706608150087
 20
-13.35358273826827
  0
LINE
  5
473
330
1F
100
AcDbEntity
  8
AM_9
100
AcDbLine
 10
18.99178608942792
 20
-16.39624909107883
 30
0.0
 11
20.6223460735738
 21
-10.3109163854577
 31
0.0
  0
LINE
  5
474
330
1F
100
AcDbEntity
  8
AM_9
100
AcDbLine
 10
26.00000000000185
 20
-10.31091638545827
 30
0.0
 11
20.62234607357385
 21
-10.31091638545827
 31
0.0
  0
LINE
  5
475
330
1F
100
AcDbEntity
  8
AM_9
100
AcDbLine
 10
18.99178608942787
 20
-16.39624909107927
 30
0.0
 11
20.96469272930371
 21
-17.53530727069758
 31
0.0
  0
LWPOLYLINE
  5
476
330
1F
100
AcDbEntity
  8
AM_9
100
AcDbPolyline
 90
        9
 70
     0
 43
0.0
 10
19.80706608150087
 20
-13.35358273826827
 10
19.78318738204425
 20
-13.68326148795582
 10
19.87545487416245
 20
-14.0390363246456
 10
20.0774792677948
 20
-14.4241334314439
 10
20.38638431515728
 20
-14.8423336394352
 10
20.70410869830029
 20
-15.19702001852673
 10
21.08924435770005
 20
-15.57739719130104
 10
21.54425118253279
 20
-15.98636131524506
 10
22.07273913859001
 20
-16.42726086141548
  0
LINE
  5
477
330
1F
100
AcDbEntity
  8
AM_9
100
AcDbLine
 10
18.99178608942789
 20
16.39624909108073
 30
0.0
 11
16.28719377581888
 21
15.67155576479377
 31
0.0
  0
LINE
  5
478
330
1F
100
AcDbEntity
  8
AM_9
100
AcDbLine
 10
17.91775375996443
 20
9.586223059172532
 30
0.0
 11
20.62234607357385
 21
10.3109163854596
 31
0.0
  0
LWPOLYLINE
  5
479
330
1F
100
AcDbEntity
  8
AM_9
100
AcDbPolyline
 90
        9
 70
     0
 43
0.0
 10
19.8070660815009
 20
13.35358273827013
 10
19.78318738204417
 20
13.68326148795721
 10
19.875454874162
 20
14.03903632464642
 10
20.07747926779379
 20
14.42413343144407
 10
20.38638431515547
 20
14.84233363943458
 10
20.7041086982977
 20
15.19702001852539
 10
21.08924435769652
 20
15.57739719129889
 10
21.54425118252816
 20
15.98636131524197
 10
22.0727391385879
 20
16.42726086141512
  0
LINE
  5
47A
330
1F
100
AcDbEntity
  8
AM_9
100
AcDbLine
 10
18.99178608942798
 20
16.3962490910807
 30
0.0
 11
20.62234607357383
 21
10.31091638545956
 31
0.0
  0
LINE
  5
47B
330
1F
100
AcDbEntity
  8
AM_9
100
AcDbLine
 10
20.96469272930382
 20
17.53530727069909
 30
0.0
 11
18.99178608942789
 21
16.39624909108073
 31
0.0
  0
LWPOLYLINE
  5
47C
330
1F
100
AcDbEntity
  8
AM_9
100
AcDbPolyline
 90
       13
 70
     0
 43
0.0
 10
26.00000000000188
 20
11.50731925812111
 10
25.01237068733224
 20
11.60378331606988
 10
24.13217366303022
 20
11.70701940302814
 10
23.34926462720411
 20
11.81776658228957
 10
22.65544135927233
 20
11.93687552033322
 10
22.04415935486612
 20
12.0653303792725
 10
21.51032549156923
 20
12.20427607313559
 10
21.05015597483384
 20
12.35505248646479
 10
20.66109018575287
 20
12.51923782235189
 10
20.34175656737439
 20
12.69870405381045
 10
20.09199094181755
 20
12.89568861355668
 10
19.91291222512181
 20
13.11288815467144
 10
19.8070660815009
 20
13.35358273827013
  0
LINE
  5
47D
330
1F
100
AcDbEntity
  8
AM_9
100
AcDbLine
 10
20.62234607357388
 20
10.31091638545953
 30
0.0
 11
26.00000000000188
 21
10.31091638545953
 31
0.0
  0
LINE
  5
47E
330
1F
100
AcDbEntity
  8
AM_0
100
AcDbLine
 10
-0.8000000000000221
 20
19.48437204451282
 30
0.0
 11
-0.5000000000000274
 21
19.48437204451282
 31
0.0
  0
ARC
  5
47F
330
1F
100
AcDbEntity
  8
AM_9
100
AcDbCircle
 10
-32.82872080849654
 20
-12.24999999896383
 30
0.0
 40
2.499999999999996
100
AcDbArc
 50
0.000000001248243
 51
179.9999999985759
  0
ARC
  5
480
330
1F
100
AcDbEntity
  8
AM_9
100
AcDbCircle
 10
-32.82872080849656
 20
12.24999999896757
 30
0.0
 40
2.5
100
AcDbArc
 50
180.0000000014239
 51
359.9999999987518
  0
ARC
  5
481
330
1F
100
AcDbEntity
  8
AM_9
100
AcDbCircle
 10
-32.82872080853239
 20
-12.24999999895091
 30
0.0
 40
1.499999999999936
100
AcDbArc
 50
0.000000001244674
 51
35.00048333531132
  0
ARC
  5
482
330
1F
100
AcDbEntity
  8
AM_0
100
AcDbCircle
 10
-32.82872080853246
 20
-12.24999999895093
 30
0.0
 40
1.500000000000004
100
AcDbArc
 50
35.00048333531021
 51
179.9999999961649
  0
ARC
  5
483
330
1F
100
AcDbEntity
  8
AM_0
100
AcDbCircle
 10
-32.82872080853247
 20
12.24999999895468
 30
0.0
 40
1.500000000000007
100
AcDbArc
 50
180.0000000038351
 51
324.9995166646905
  0
ARC
  5
484
330
1F
100
AcDbEntity
  8
AM_9
100
AcDbCircle
 10
-32.82872080853251
 20
12.24999999895469
 30
0.0
 40
1.500000000000042
100
AcDbArc
 50
324.999516664691
 51
359.9999999987542
  0
LINE
  5
485
330
1F
100
AcDbEntity
  8
AM_9
100
AcDbLine
 10
-0.800000000000036
 20
18.00825395674381
 30
0.0
 11
-0.5000000000000413
 21
18.00825395674381
 31
0.0
  0
LINE
  5
486
330
1F
100
AcDbEntity
  8
AM_0
100
AcDbLine
 10
-0.800000000000036
 20
17.50109376997682
 30
0.0
 11
-0.5000000000000413
 21
17.50109376997682
 31
0.0
  0
LINE
  5
487
330
1F
100
AcDbEntity
  8
AM_9
100
AcDbLine
 10
-0.8000000000000221
 20
18.95234146208482
 30
0.0
 11
-0.5000000000000274
 21
18.95234146208482
 31
0.0
  0
LINE
  5
488
330
1F
100
AcDbEntity
  8
AM_9
100
AcDbLine
 10
-0.800000000000036
 20
18.10080232710482
 30
0.0
 11
-0.5000000000000413
 21
18.10080232710482
 31
0.0
  0
LINE
  5
489
330
1F
100
AcDbEntity
  8
AM_0
100
AcDbLine
 10
23.00000000000185
 20
2.50000000000073
 30
0.0
 11
23.00000000000188
 21
3.500000000000725
 31
0.0
  0
LINE
  5
48A
330
1F
100
AcDbEntity
  8
AM_9
100
AcDbLine
 10
23.00000000000185
 20
-2.499999999999261
 30
0.0
 11
23.00000000000185
 21
2.50000000000073
 31
0.0
  0
LINE
  5
48B
330
1F
100
AcDbEntity
  8
AM_0
100
AcDbLine
 10
23.00000000000185
 20
-3.499999999999281
 30
0.0
 11
23.00000000000185
 21
-2.499999999999261
 31
0.0
  0
LINE
  5
48C
330
1F
100
AcDbEntity
  8
AM_9
100
AcDbLine
 10
-0.8000000000000221
 20
18.84988393873881
 30
0.0
 11
-0.5000000000000274
 21
18.84988393873881
 31
0.0
  0
LINE
  5
48D
330
1F
100
AcDbEntity
  8
AM_0
100
AcDbLine
 10
-0.8000000000000221
 20
19.43474760145782
 30
0.0
 11
-0.5000000000000274
 21
19.43474760145783
 31
0.0
  0
LINE
  5
48E
330
1F
100
AcDbEntity
  8
AM_9
100
AcDbLine
 10
-0.800000000000036
 20
18.21395292372382
 30
0.0
 11
-0.5000000000000413
 21
18.21395292372382
 31
0.0
  0
LINE
  5
48F
330
1F
100
AcDbEntity
  8
AM_0
100
AcDbLine
 10
-0.800000000000036
 20
17.55415334791781
 30
0.0
 11
-0.5000000000000413
 21
17.55415334791781
 31
0.0
  0
LINE
  5
490
330
1F
100
AcDbEntity
  8
AM_9
100
AcDbLine
 10
-0.8000000000000221
 20
18.72587480635282
 30
0.0
 11
-0.5000000000000274
 21
18.72587480635281
 31
0.0
  0
LINE
  5
491
330
1F
100
AcDbEntity
  8
AM_9
100
AcDbLine
 10
-11.49999992786041
 20
-11.29419767343726
 30
0.0
 11
-1.000000030157738
 21
-11.59412600707878
 31
0.0
  0
LINE
  5
492
330
1F
100
AcDbEntity
  8
AM_9
100
AcDbLine
 10
-11.49999976463806
 20
11.29419797291092
 30
0.0
 11
-1.000000090350061
 21
11.59412662128582
 31
0.0
  0
LINE
  5
493
330
1F
100
AcDbEntity
  8
AM_9
100
AcDbLine
 10
-0.800000000000036
 20
18.34683599562382
 30
0.0
 11
-0.5000000000000413
 21
18.34683599562382
 31
0.0
  0
LINE
  5
494
330
1F
100
AcDbEntity
  8
AM_9
100
AcDbLine
 10
-0.8000000000000221
 20
18.58031311125483
 30
0.0
 11
-0.5000000000000274
 21
18.58031311125482
 31
0.0
  0
LINE
  5
495
330
1F
100
AcDbEntity
  8
AM_0
100
AcDbLine
 10
-0.8000000000000221
 20
19.35203876585681
 30
0.0
 11
-0.5000000000000274
 21
19.35203876585681
 31
0.0
  0
LINE
  5
496
330
1F
100
AcDbEntity
  8
AM_0
100
AcDbLine
 10
-0.800000000000036
 20
17.64258756727882
 30
0.0
 11
-0.5000000000000413
 21
17.64258756727882
 31
0.0
  0
LWPOLYLINE
  5
497
330
1F
100
AcDbEntity
  8
AM_9
100
AcDbPolyline
 90
       19
 70
     0
 43
0.0
 10
14.6444397091284
 20
-13.10906496941853
 10
14.65388067248997
 20
-13.06647953570074
 10
14.65957414502974
 20
-13.0232333182411
 10
14.66147679598387
 20
-12.97965544686727
 10
14.65957414502974
 20
-12.93607757549345
 10
14.65388067248997
 20
-12.89283135803381
 10
14.6444397091284
 20
-12.85024592431601
 10
14.63132310637682
 20
-12.80864537520444
 10
14.61463068950219
 20
-12.76834631599692
 10
14.59448949787609
 20
-12.72965544686727
 10
14.57105281812837
 20
-12.69286722869175
 10
14.54449901754336
 20
-12.65826164202401
 10
14.51503018657714
 20
-12.626102056274
 10
14.48287060082714
 20
-12.59663322530779
 10
14.44826501415939
 20
-12.57007942472278
 10
14.41147679598387
 20
-12.54664274497506
 10
14.37278592685422
 20
-12.52650155334895
 10
14.33248686764671
 20
-12.50980913647432
 10
14.29088631853513
 20
-12.49669253372274
  0
LWPOLYLINE
  5
498
330
1F
100
AcDbEntity
  8
AM_9
100
AcDbPolyline
 90
       19
 70
     0
 43
0.0
 10
14.12680161892338
 20
-15.04091662199752
 10
14.1136850161718
 20
-15.0825171711091
 10
14.09699259929717
 20
-15.12281623031661
 10
14.07685140767106
 20
-15.16150709944626
 10
14.05341472792334
 20
-15.19829531762178
 10
14.02686092733833
 20
-15.23290090428953
 10
13.99739209637212
 20
-15.26506049003954
 10
13.96523251062211
 20
-15.29452932100575
 10
13.93062692395437
 20
-15.32108312159076
 10
13.89383870577884
 20
-15.34451980133848
 10
13.85514783664919
 20
-15.36466099296459
 10
13.81484877744168
 20
-15.38135340983922
 10
13.7732482283301
 20
-15.3944700125908
 10
13.73066279461231
 20
-15.40391097595237
 10
13.68741657715267
 20
-15.40960444849214
 10
13.64383870577884
 20
-15.41150709944626
 10
13.60026083440501
 20
-15.40960444849213
 10
13.55701461694538
 20
-15.40391097595237
 10
13.51442921110031
 20
-15.39447002005927
  0
LINE
  5
499
330
1F
100
AcDbEntity
  8
AM_9
100
AcDbLine
 10
14.64443970912807
 20
-13.10906496941933
 30
0.0
 11
14.12680161892307
 21
-15.04091662199732
 31
0.0
  0
LWPOLYLINE
  5
49A
330
1F
100
AcDbEntity
  8
AM_9
100
AcDbPolyline
 90
       19
 70
     0
 43
0.0
 10
14.60146920053034
 20
-11.33758154964528
 10
14.64405463479298
 20
-11.34702251054916
 10
14.6873008525812
 20
-11.3527159805931
 10
14.73087872406484
 20
-11.35461862903227
 10
14.77445659532886
 20
-11.35271597556318
 10
14.81770281245992
 20
-11.34702250052758
 10
14.86028824563286
 20
-11.33758153470833
 10
14.90188879398744
 20
-11.3244649295559
 10
14.94218785223161
 20
-11.30777251035553
 10
14.98087872019887
 20
-11.2876313164965
 10
15.01766693702182
 20
-11.26419463462566
 10
15.05227252215709
 20
-11.23764083204349
 10
15.08443210620639
 20
-11.20817199922129
 10
15.11390093531662
 20
-11.17601241177058
 10
15.14045473390447
 20
-11.14140682357036
 10
15.16389141152907
 20
-11.10461860404226
 10
15.18403260092225
 20
-11.06592773375022
 10
15.20072501547114
 20
-11.02562867357936
 10
15.2138416083534
 20
-10.98402815158353
  0
LINE
  5
49B
330
1F
100
AcDbEntity
  8
AM_9
100
AcDbLine
 10
15.73147969855868
 20
-9.052176499005208
 30
0.0
 11
15.21384160835368
 21
-10.98402815158322
 31
0.0
  0
LWPOLYLINE
  5
49C
330
1F
100
AcDbEntity
  8
AM_9
100
AcDbPolyline
 90
       19
 70
     0
 43
0.0
 10
15.7314796985584
 20
-9.052176499004542
 10
15.74092066191997
 20
-9.009591065286745
 10
15.74661413445973
 20
-8.966344847827108
 10
15.74851678541386
 20
-8.922766976453282
 10
15.74661413445973
 20
-8.879189105079451
 10
15.74092066191997
 20
-8.835942887619815
 10
15.7314796985584
 20
-8.79335745390202
 10
15.71836309580682
 20
-8.751756904790446
 10
15.70167067893219
 20
-8.711457845582931
 10
15.68152948730608
 20
-8.672766976453282
 10
15.65809280755836
 20
-8.635978758277757
 10
15.63153900697335
 20
-8.60137317161001
 10
15.60207017600714
 20
-8.569213585860007
 10
15.56991059025713
 20
-8.539744754893793
 10
15.53530500358939
 20
-8.513190954308783
 10
15.49851678541386
 20
-8.48975427456106
 10
15.45982591628421
 20
-8.469613082934956
 10
15.4195268570767
 20
-8.452920666060326
 10
15.37792630796513
 20
-8.439804063308744
  0
LINE
  5
49D
330
1F
100
AcDbEntity
  8
AM_9
100
AcDbLine
 10
13.5144291832277
 20
-15.39447001259023
 30
0.0
 11
15.37792630796578
 21
-8.439804063309255
 31
0.0
  0
LINE
  5
49E
330
1F
100
AcDbEntity
  8
AM_9
100
AcDbLine
 10
14.70177822956287
 20
-8.25863073173727
 30
0.0
 11
15.37792630796589
 21
-8.439804063309214
 31
0.0
  0
LINE
  5
49F
330
1F
100
AcDbEntity
  8
AM_9
100
AcDbLine
 10
14.70177822956287
 20
-8.25863073173727
 30
0.0
 11
12.83828110482479
 21
-15.21329668101824
 31
0.0
  0
LINE
  5
4A0
330
1F
100
AcDbEntity
  8
AM_9
100
AcDbLine
 10
12.83828110482488
 20
-15.21329668101827
 30
0.0
 11
13.5144291832279
 21
-15.39447001259021
 31
0.0
  0
LWPOLYLINE
  5
4A1
330
1F
100
AcDbEntity
  8
AM_9
100
AcDbPolyline
 90
       19
 70
     0
 43
0.0
 10
15.21384160835343
 20
10.98402815158439
 10
15.20072500560185
 20
11.02562870069596
 10
15.18403258872722
 20
11.06592775990348
 10
15.16389139710111
 20
11.10461862903313
 10
15.14045471735339
 20
11.14140684720865
 10
15.11390091676838
 20
11.1760124338764
 10
15.08443208580217
 20
11.2081720196264
 10
15.05227250005216
 20
11.23764085059262
 10
15.01766691338442
 20
11.26419465117762
 10
14.98087869520889
 20
11.28763133092535
 10
14.94218782607924
 20
11.30777252255145
 10
14.90188876687173
 20
11.32446493942608
 10
14.86028821776016
 20
11.33758154217766
 10
14.81770278404236
 20
11.34702250553923
 10
14.77445656658272
 20
11.352715978079
 10
14.73087869520889
 20
11.35461862903313
 10
14.68730082383506
 20
11.352715978079
 10
14.64405460637543
 20
11.34702250553923
 10
14.60146917265763
 20
11.33758154217766
  0
LWPOLYLINE
  5
4A2
330
1F
100
AcDbEntity
  8
AM_9
100
AcDbPolyline
 90
       19
 70
     0
 43
0.0
 10
15.73147969855943
 20
9.052176499006288
 10
15.74092066192099
 20
9.009591065288493
 10
15.74661413446076
 20
8.966344847828857
 10
15.74851678541489
 20
8.922766976455028
 10
15.74661413446076
 20
8.879189105081197
 10
15.74092066192099
 20
8.835942887621563
 10
15.73147969855943
 20
8.793357453903766
 10
15.71836309580784
 20
8.751756904792193
 10
15.70167067893322
 20
8.711457845584677
 10
15.68152948730711
 20
8.672766976455026
 10
15.65809280755939
 20
8.635978758279503
 10
15.63153900697438
 20
8.601373171611758
 10
15.60207017600816
 20
8.569213585861752
 10
15.56991059025816
 20
8.539744754895539
 10
15.53530500359041
 20
8.51319095431053
 10
15.49851678541489
 20
8.489754274562808
 10
15.45982591628524
 20
8.469613082936702
 10
15.41952685707773
 20
8.452920666062072
 10
15.37792630796615
 20
8.439804063310492
  0
LINE
  5
4A3
330
1F
100
AcDbEntity
  8
AM_9
100
AcDbLine
 10
15.21384160835368
 20
10.98402815158439
 30
0.0
 11
15.73147969855876
 21
9.052176499006178
 31
0.0
  0
LINE
  5
4A4
330
1F
100
AcDbEntity
  8
AM_9
100
AcDbLine
 10
12.83828110482491
 20
15.21329668102003
 30
0.0
 11
13.51442918322784
 21
15.39447001259195
 31
0.0
  0
LINE
  5
4A5
330
1F
100
AcDbEntity
  8
AM_9
100
AcDbLine
 10
12.83828110482491
 20
15.21329668102003
 30
0.0
 11
14.70177822956303
 21
8.25863073173877
 31
0.0
  0
LINE
  5
4A6
330
1F
100
AcDbEntity
  8
AM_9
100
AcDbLine
 10
14.7017782295629
 20
8.258630731738728
 30
0.0
 11
15.37792630796583
 21
8.439804063310644
 31
0.0
  0
LWPOLYLINE
  5
4A7
330
1F
100
AcDbEntity
  8
AM_9
100
AcDbPolyline
 90
       19
 70
     0
 43
0.0
 10
14.29088627911716
 20
12.49669252316248
 10
14.33248682929927
 20
12.50980912251875
 10
14.37278588986917
 20
12.52650153610429
 10
14.41147676064269
 20
12.54664272457256
 10
14.44826498073104
 20
12.57007940131774
 10
14.48287056956603
 20
12.59663319907834
 10
14.51503015772119
 20
12.62610202741979
 10
14.54449899131218
 20
12.65826161076463
 10
14.57105279472159
 20
12.69286719526513
 10
14.59448947747186
 20
12.72965541152783
 10
14.6146306722558
 20
12.76834627901361
 10
14.63132309241951
 20
12.80864533685874
 10
14.64443969856641
 20
12.85024588489978
 10
14.65388066540367
 20
12.89283131784703
 10
14.65957414147307
 20
12.93607753484198
 10
14.66147679598389
 20
12.97965540606052
 10
14.65957414858646
 20
13.02323327758964
 10
14.65388067957632
 20
13.06647949551396
 10
14.64443971969045
 20
13.1090649300023
  0
LINE
  5
4A8
330
1F
100
AcDbEntity
  8
AM_9
100
AcDbLine
 10
14.1268016189231
 20
15.04091662199848
 30
0.0
 11
14.64443970912821
 21
13.10906496942016
 31
0.0
  0
LWPOLYLINE
  5
4A9
330
1F
100
AcDbEntity
  8
AM_9
100
AcDbPolyline
 90
       19
 70
     0
 43
0.0
 10
14.12680161892341
 20
15.04091662199848
 10
14.11368501617183
 20
15.08251717111005
 10
14.0969925992972
 20
15.12281623031757
 10
14.07685140767109
 20
15.16150709944722
 10
14.05341472792337
 20
15.19829531762274
 10
14.02686092733836
 20
15.23290090429049
 10
13.99739209637215
 20
15.26506049004049
 10
13.96523251062214
 20
15.29452932100671
 10
13.9306269239544
 20
15.32108312159171
 10
13.89383870577887
 20
15.34451980133944
 10
13.85514783664922
 20
15.36466099296554
 10
13.81484877744171
 20
15.38135340984017
 10
13.77324822833013
 20
15.39447001259175
 10
13.73066279461234
 20
15.40391097595332
 10
13.6874165771527
 20
15.40960444849309
 10
13.64383870577887
 20
15.41150709944722
 10
13.60026083440504
 20
15.40960444849309
 10
13.55701461694541
 20
15.40391097595332
 10
13.51442918322761
 20
15.39447001259175
  0
LINE
  5
4AA
330
1F
100
AcDbEntity
  8
AM_9
100
AcDbLine
 10
15.37792630796597
 20
8.439804063310449
 30
0.0
 11
13.51442918322784
 21
15.39447001259171
 31
0.0
  0
LINE
  5
4AB
330
1F
100
AcDbEntity
  8
AM_0
100
AcDbLine
 10
-0.8000000000000221
 20
19.23624696821884
 30
0.0
 11
-0.5000000000000274
 21
19.23624696821884
 31
0.0
  0
LINE
  5
4AC
330
1F
100
AcDbEntity
  8
AM_0
100
AcDbLine
 10
-0.800000000000036
 20
17.76639452070882
 30
0.0
 11
-0.5000000000000413
 21
17.76639452070882
 31
0.0
  0
LINE
  5
4AD
330
1F
100
AcDbEntity
  8
AM_0
100
AcDbLine
 10
-0.800000000000036
 20
17.11990889538043
 30
0.0
 11
-0.5000000000000413
 21
17.11990889538043
 31
0.0
  0
LINE
  5
4AE
330
1F
100
AcDbEntity
  8
AM_0
100
AcDbLine
 10
-0.800000000000036
 20
16.70281275738042
 30
0.0
 11
-0.5000000000000413
 21
16.70281275738042
 31
0.0
  0
LINE
  5
4AF
330
1F
100
AcDbEntity
  8
AM_0
100
AcDbLine
 10
-0.8000000000000221
 20
19.09259119124082
 30
0.0
 11
-0.5000000000000274
 21
19.09259119124082
 31
0.0
  0
LINE
  5
4B0
330
1F
100
AcDbEntity
  8
AM_0
100
AcDbLine
 10
-0.800000000000036
 20
17.91997518629681
 30
0.0
 11
-0.5000000000000413
 21
17.91997518629681
 31
0.0
  0
LINE
  5
4B1
330
1F
100
AcDbEntity
  8
AM_0
100
AcDbLine
 10
-0.8000000000000221
 20
18.92629089445781
 30
0.0
 11
-0.5000000000000274
 21
18.92629089445781
 31
0.0
  0
LINE
  5
4B2
330
1F
100
AcDbEntity
  8
AM_0
100
AcDbLine
 10
-0.5000000000000413
 20
17.48340692610384
 30
0.0
 11
-0.5000000000000274
 21
19.50091400236782
 31
0.0
  0
LINE
  5
4B3
330
1F
100
AcDbEntity
  8
AM_0
100
AcDbLine
 10
-0.800000000000036
 20
18.09772958845782
 30
0.0
 11
-0.5000000000000413
 21
18.09772958845782
 31
0.0
  0
LINE
  5
4B4
330
1F
100
AcDbEntity
  8
AM_0
100
AcDbLine
 10
-0.8000000000000221
 20
18.73734750837982
 30
0.0
 11
-0.5000000000000274
 21
18.73734750837983
 31
0.0
  0
LINE
  5
4B5
330
1F
100
AcDbEntity
  8
AM_0
100
AcDbLine
 10
-0.8000000000000221
 20
18.52575960249582
 30
0.0
 11
-0.5000000000000274
 21
18.52575960249582
 31
0.0
  0
LINE
  5
4B6
330
1F
100
AcDbEntity
  8
AM_0
100
AcDbLine
 10
-0.800000000000036
 20
18.29965868086483
 30
0.0
 11
-0.5000000000000413
 21
18.29965868086483
 31
0.0
  0
LINE
  5
4B7
330
1F
100
AcDbEntity
  8
AM_9
100
AcDbLine
 10
-21.40000000000045
 20
12.31206824591798
 30
0.0
 11
-21.40000000000044
 21
-12.31206824591462
 31
0.0
  0
ARC
  5
4B8
330
1F
100
AcDbEntity
  8
AM_9
100
AcDbCircle
 10
-20.90000000000044
 20
-12.31206824591462
 30
0.0
 40
0.5000000000000107
100
AcDbArc
 50
180.0000000000004
 51
262.9999999999536
  0
ARC
  5
4B9
330
1F
100
AcDbEntity
  8
AM_9
100
AcDbCircle
 10
-20.90000000000045
 20
12.31206824591798
 30
0.0
 40
0.5000000000000098
100
AcDbArc
 50
97.00000000004646
 51
179.9999999999996
  0
LINE
  5
4BA
330
1F
100
AcDbEntity
  8
AM_9
100
AcDbLine
 10
-4.00000001239005
 20
-3.166065877878543
 30
0.0
 11
-11.49999998233704
 21
-2.84716960284824
 31
0.0
  0
LINE
  5
4BB
330
1F
100
AcDbEntity
  8
AM_9
100
AcDbLine
 10
-4.000000037150049
 20
3.166065947812324
 30
0.0
 11
-11.49999994701603
 21
2.847169603293523
 31
0.0
  0
LINE
  5
4BC
330
1F
100
AcDbEntity
  8
AM_9
100
AcDbLine
 10
-22.82872080808345
 20
-12.99999999859687
 30
0.0
 11
-21.32872080808335
 21
-12.99999999859687
 31
0.0
  0
LINE
  5
4BD
330
1F
100
AcDbEntity
  8
AM_9
100
AcDbLine
 10
-21.32872080808336
 20
12.99999999860053
 30
0.0
 11
-22.82872080808346
 21
12.99999999860053
 31
0.0
  0
LINE
  5
4BE
330
1F
100
AcDbEntity
  8
AM_9
100
AcDbLine
 10
-21.32872080808336
 20
12.99999999861541
 30
0.0
 11
-21.32872080808335
 21
-12.99999999861159
 31
0.0
  0
LINE
  5
4BF
330
1F
100
AcDbEntity
  8
AM_9
100
AcDbLine
 10
-20.96093467170343
 20
12.80834132173868
 30
0.0
 11
-20.96093467170343
 21
-12.80834132173532
 31
0.0
  0
LINE
  5
4C0
330
1F
100
AcDbEntity
  8
AM_9
100
AcDbLine
 10
-20.96093467170343
 20
-12.8083413217353
 30
0.0
 11
-19.40000000000044
 21
-12.99999999999846
 31
0.0
  0
LINE
  5
4C1
330
1F
100
AcDbEntity
  8
AM_9
100
AcDbLine
 10
-19.40000000000045
 20
13.00000000000182
 30
0.0
 11
-20.96093467170343
 21
12.80834132173866
 31
0.0
  0
LINE
  5
4C2
330
1F
100
AcDbEntity
  8
AM_0
100
AcDbLine
 10
-42.32872080858256
 20
10.50000000000339
 30
0.0
 11
-42.32872080858256
 21
-10.49999999999961
 31
0.0
  0
LINE
  5
4C3
330
1F
100
AcDbEntity
  8
AM_0
100
AcDbLine
 10
-47.32872080858255
 20
10.50000000000302
 30
0.0
 11
-47.32872080858255
 21
-10.49999999999938
 31
0.0
  0
ARC
  5
4C4
330
1F
100
AcDbEntity
  8
AM_0
100
AcDbCircle
 10
-44.82872080858256
 20
-10.49999999999944
 30
0.0
 40
2.5
100
AcDbArc
 50
179.999999999997
 51
359.9999999999943
  0
ARC
  5
4C5
330
1F
100
AcDbEntity
  8
AM_0
100
AcDbCircle
 10
-44.82872080858255
 20
10.50000000000315
 30
0.0
 40
2.5
100
AcDbArc
 50
0.0000000000055774
 51
180.0000000000031
  0
LINE
  5
4C6
330
1F
100
AcDbEntity
  8
AM_9
100
AcDbLine
 10
-23.90000000000045
 20
13.00000000000188
 30
0.0
 11
-23.90000000000045
 21
-12.99999999999852
 31
0.0
  0
LINE
  5
4C7
330
1F
100
AcDbEntity
  8
AM_9
100
AcDbLine
 10
-23.90000000000045
 20
13.00000000000186
 30
0.0
 11
-31.40000190385645
 21
13.0327251394643
 31
0.0
  0
LINE
  5
4C8
330
1F
100
AcDbEntity
  8
AM_9
100
AcDbLine
 10
-31.40000190385645
 20
-13.03272513946095
 30
0.0
 11
-23.90000000000045
 21
-12.9999999999985
 31
0.0
  0
LINE
  5
4C9
330
1F
100
AcDbEntity
  8
AM_9
100
AcDbLine
 10
0.0000000000018604
 20
-10.89999999999952
 30
0.0
 11
6.224166186106356
 21
-14.16776030312286
 31
0.0
  0
LINE
  5
4CA
330
1F
100
AcDbEntity
  8
AM_9
100
AcDbLine
 10
14.31108965604585
 20
-17.31614024060009
 30
0.0
 11
14.31108965604583
 21
-16.09181079154928
 31
0.0
  0
LINE
  5
4CB
330
1F
100
AcDbEntity
  8
AM_9
100
AcDbLine
 10
14.31108965604583
 20
-16.09181079154928
 30
0.0
 11
16.1319023487568
 21
-16.25111126056548
 31
0.0
  0
LINE
  5
4CC
330
1F
100
AcDbEntity
  8
AM_9
100
AcDbLine
 10
18.20245470957688
 20
-8.523704650253276
 30
0.0
 11
13.42112186944586
 21
-7.242550376995421
 31
0.0
  0
LINE
  5
4CD
330
1F
100
AcDbEntity
  8
AM_9
100
AcDbLine
 10
13.4858266307217
 20
-7.001068920423251
 30
0.0
 11
12.47160451311785
 21
-6.72930892306535
 31
0.0
  0
LINE
  5
4CE
330
1F
100
AcDbEntity
  8
AM_9
100
AcDbLine
 10
13.42112186944586
 20
-7.242550376995421
 30
0.0
 11
13.4858266307217
 21
-7.001068920423251
 31
0.0
  0
LINE
  5
4CF
330
1F
100
AcDbEntity
  8
AM_9
100
AcDbLine
 10
12.47160451311785
 20
-6.72930892306535
 30
0.0
 11
10.12929215494055
 21
-15.47093765098219
 31
0.0
  0
LINE
  5
4D0
330
1F
100
AcDbEntity
  8
AM_9
100
AcDbLine
 10
11.09521798122973
 20
-15.72975669608455
 30
0.0
 11
10.73287131808634
 21
-16.3573595266018
 31
0.0
  0
LINE
  5
4D1
330
1F
100
AcDbEntity
  8
AM_9
100
AcDbLine
 10
6.224166186107634
 20
14.16776030312486
 30
0.0
 11
0.0000000000019159
 21
10.90000000000076
 31
0.0
  0
LINE
  5
4D2
330
1F
100
AcDbEntity
  8
AM_9
100
AcDbLine
 10
18.20245470957699
 20
8.523704650254565
 30
0.0
 11
13.42112186944591
 21
7.242550376997059
 31
0.0
  0
LINE
  5
4D3
330
1F
100
AcDbEntity
  8
AM_9
100
AcDbLine
 10
13.48582663072187
 20
7.001068920424832
 30
0.0
 11
12.47160451311791
 21
6.729308923067085
 31
0.0
  0
LINE
  5
4D4
330
1F
100
AcDbEntity
  8
AM_9
100
AcDbLine
 10
13.42112186944591
 20
7.242550376997031
 30
0.0
 11
13.48582663072159
 21
7.001068920424763
 31
0.0
  0
LINE
  5
4D5
330
1F
100
AcDbEntity
  8
AM_9
100
AcDbLine
 10
12.47160451311788
 20
6.729308923067223
 30
0.0
 11
10.12929215494018
 21
15.47093765098304
 31
0.0
  0
LINE
  5
4D6
330
1F
100
AcDbEntity
  8
AM_9
100
AcDbLine
 10
11.09521798122989
 20
15.72975669608573
 30
0.0
 11
10.73287131808623
 21
16.35735952660362
 31
0.0
  0
LINE
  5
4D7
330
1F
100
AcDbEntity
  8
AM_9
100
AcDbLine
 10
14.31108965604588
 20
16.09181079155072
 30
0.0
 11
16.13190234875692
 21
16.25111126056704
 31
0.0
  0
LINE
  5
4D8
330
1F
100
AcDbEntity
  8
AM_9
100
AcDbLine
 10
14.31108965604588
 20
17.31614024060183
 30
0.0
 11
14.31108965604585
 21
16.09181079155072
 31
0.0
  0
LINE
  5
4D9
330
1F
100
AcDbEntity
  8
AM_9
100
AcDbLine
 10
-31.40000190385634
 20
13.03272513946428
 30
0.0
 11
-31.60000000000061
 21
13.23359780132138
 31
0.0
  0
LINE
  5
4DA
330
1F
100
AcDbEntity
  8
AM_9
100
AcDbLine
 10
-31.60000000000061
 20
-13.23359780131802
 30
0.0
 11
-31.40000190385634
 21
-13.03272513946092
 31
0.0
  0
LINE
  5
4DB
330
1F
100
AcDbEntity
  8
AM_9
100
AcDbLine
 10
-2.499999999998141
 20
-5.499999999999256
 30
0.0
 11
-2.499999999998142
 21
-6.499999999999257
 31
0.0
  0
LINE
  5
4DC
330
1F
100
AcDbEntity
  8
AM_9
100
AcDbLine
 10
-2.499999999998142
 20
-6.499999999999257
 30
0.0
 11
-1.999999999998142
 21
-6.999999999999256
 31
0.0
  0
LINE
  5
4DD
330
1F
100
AcDbEntity
  8
AM_9
100
AcDbLine
 10
-1.99999999999814
 20
-4.999999999999256
 30
0.0
 11
-2.499999999998141
 21
-5.499999999999256
 31
0.0
  0
LINE
  5
4DE
330
1F
100
AcDbEntity
  8
AM_9
100
AcDbLine
 10
-1.999999999998142
 20
-6.999999999999256
 30
0.0
 11
-1.99999999999814
 21
-4.999999999999256
 31
0.0
  0
LINE
  5
4DF
330
1F
100
AcDbEntity
  8
AM_9
100
AcDbLine
 10
0.0000000000018604
 20
-4.999999999999247
 30
0.0
 11
-3.000000000000056
 21
-4.999999999997977
 31
0.0
  0
LINE
  5
4E0
330
1F
100
AcDbEntity
  8
AM_9
100
AcDbLine
 10
-2.499999999998114
 20
5.500000000000741
 30
0.0
 11
-1.999999999998114
 21
5.000000000000741
 31
0.0
  0
LINE
  5
4E1
330
1F
100
AcDbEntity
  8
AM_9
100
AcDbLine
 10
-1.999999999998112
 20
7.000000000000741
 30
0.0
 11
-2.499999999998113
 21
6.500000000000742
 31
0.0
  0
LINE
  5
4E2
330
1F
100
AcDbEntity
  8
AM_9
100
AcDbLine
 10
-2.499999999998114
 20
6.500000000000742
 30
0.0
 11
-2.499999999998114
 21
5.500000000000741
 31
0.0
  0
LINE
  5
4E3
330
1F
100
AcDbEntity
  8
AM_9
100
AcDbLine
 10
-1.999999999998114
 20
5.000000000000741
 30
0.0
 11
-1.999999999998113
 21
7.000000000000741
 31
0.0
  0
LINE
  5
4E4
330
1F
100
AcDbEntity
  8
AM_9
100
AcDbLine
 10
0.0000000000018881
 20
7.00000000000075
 30
0.0
 11
-3.000000000000043
 21
7.000000000002021
 31
0.0
  0
LINE
  5
4E5
330
1F
100
AcDbEntity
  8
AM_9
100
AcDbLine
 10
23.00000000000185
 20
-6.99999999999927
 30
0.0
 11
23.00000000000185
 21
-4.99999999999927
 31
0.0
  0
LINE
  5
4E6
330
1F
100
AcDbEntity
  8
AM_9
100
AcDbLine
 10
25.50000000000185
 20
-4.999999999999273
 30
0.0
 11
23.00000000000185
 21
-4.99999999999927
 31
0.0
  0
LINE
  5
4E7
330
1F
100
AcDbEntity
  8
AM_9
100
AcDbLine
 10
23.00000000000188
 20
5.000000000000727
 30
0.0
 11
25.50000000000188
 21
5.000000000000725
 31
0.0
  0
LINE
  5
4E8
330
1F
100
AcDbEntity
  8
AM_9
100
AcDbLine
 10
23.00000000000188
 20
7.000000000000727
 30
0.0
 11
23.00000000000188
 21
5.000000000000727
 31
0.0
  0
LINE
  5
4E9
330
1F
100
AcDbEntity
  8
AM_9
100
AcDbLine
 10
-3.000000000000058
 20
-6.999999999997977
 30
0.0
 11
0.0000000000018604
 21
-6.999999999999248
 31
0.0
  0
LINE
  5
4EA
330
1F
100
AcDbEntity
  8
AM_9
100
AcDbLine
 10
-3.000000000000058
 20
-6.999999999997979
 30
0.0
 11
-3.000000000000056
 21
-4.999999999997979
 31
0.0
  0
LINE
  5
4EB
330
1F
100
AcDbEntity
  8
AM_9
100
AcDbLine
 10
-3.000000000000043
 20
7.000000000002018
 30
0.0
 11
-3.000000000000044
 21
5.000000000002018
 31
0.0
  0
LINE
  5
4EC
330
1F
100
AcDbEntity
  8
AM_9
100
AcDbLine
 10
-3.000000000000044
 20
5.000000000002021
 30
0.0
 11
0.0000000000018881
 21
5.00000000000075
 31
0.0
  0
LINE
  5
4ED
330
1F
100
AcDbEntity
  8
AM_9
100
AcDbLine
 10
-1.000000000000073
 20
-18.54156009945858
 30
0.0
 11
-1.000000000000056
 21
-8.130982828723473
 31
0.0
  0
LINE
  5
4EE
330
1F
100
AcDbEntity
  8
AM_9
100
AcDbLine
 10
-1.000000000000039
 20
18.54156009946273
 30
0.0
 11
-1.000000000000042
 21
8.130982828727623
 31
0.0
  0
LINE
  5
4EF
330
1F
100
AcDbEntity
  8
AM_9
100
AcDbLine
 10
19.50000000000185
 20
-1.199999999999288
 30
0.0
 11
23.50000000000185
 21
-1.199999999999292
 31
0.0
  0
LINE
  5
4F0
330
1F
100
AcDbEntity
  8
AM_9
100
AcDbLine
 10
23.50000000000185
 20
1.200000000000708
 30
0.0
 11
19.50000000000185
 21
1.200000000000712
 31
0.0
  0
LINE
  5
4F1
330
1F
100
AcDbEntity
  8
AM_9
100
AcDbLine
 10
19.50000000000185
 20
-1.199999999999278
 30
0.0
 11
19.50000000000185
 21
1.200000000000722
 31
0.0
  0
LINE
  5
4F2
330
1F
100
AcDbEntity
  8
AM_9
100
AcDbLine
 10
-8.500000000000064
 20
-1.199999999997974
 30
0.0
 11
-8.500000000000062
 21
1.200000000002026
 31
0.0
  0
LINE
  5
4F3
330
1F
100
AcDbEntity
  8
AM_9
100
AcDbLine
 10
-0.2500000000000532
 20
1.200000000002018
 30
0.0
 11
-8.500000000000062
 21
1.200000000002026
 31
0.0
  0
LINE
  5
4F4
330
1F
100
AcDbEntity
  8
AM_9
100
AcDbLine
 10
-8.500000000000064
 20
-1.199999999997974
 30
0.0
 11
-0.2500000000000567
 21
-1.199999999997982
 31
0.0
  0
LINE
  5
4F5
330
1F
100
AcDbEntity
  8
AM_9
100
AcDbLine
 10
6.500000000001869
 20
-1.299999999999263
 30
0.0
 11
8.000000000001865
 21
-1.299999999999264
 31
0.0
  0
LINE
  5
4F6
330
1F
100
AcDbEntity
  8
AM_0
100
AcDbLine
 10
1.000000000001861
 20
-1.299999999999258
 30
0.0
 11
6.500000000001869
 21
-1.299999999999263
 31
0.0
  0
LINE
  5
4F7
330
1F
100
AcDbEntity
  8
AM_0
100
AcDbLine
 10
6.50000000000189
 20
1.300000000000737
 30
0.0
 11
1.000000000001863
 21
1.300000000000742
 31
0.0
  0
LINE
  5
4F8
330
1F
100
AcDbEntity
  8
AM_9
100
AcDbLine
 10
8.000000000001869
 20
1.300000000000736
 30
0.0
 11
6.50000000000189
 21
1.300000000000737
 31
0.0
  0
LINE
  5
4F9
330
1F
100
AcDbEntity
  8
AM_9
100
AcDbLine
 10
-1.000000000000056
 20
-8.130982828723473
 30
0.0
 11
-4.000000000000059
 21
-7.999999999997967
 31
0.0
  0
LINE
  5
4FA
330
1F
100
AcDbEntity
  8
AM_9
100
AcDbLine
 10
-1.000000000000042
 20
8.130982828727623
 30
0.0
 11
-4.000000000000044
 21
8.000000000002046
 31
0.0
  0
LINE
  5
4FB
330
1F
100
AcDbEntity
  8
AM_9
100
AcDbLine
 10
-4.000000000000059
 20
-7.999999999997967
 30
0.0
 11
-4.000000000000059
 21
-2.827457071811735
 31
0.0
  0
LINE
  5
4FC
330
1F
100
AcDbEntity
  8
AM_9
100
AcDbLine
 10
-4.000000000000044
 20
8.000000000002046
 30
0.0
 11
-4.000000000000044
 21
2.82745707181587
 31
0.0
  0
LINE
  5
4FD
330
1F
100
AcDbEntity
  8
AM_9
100
AcDbLine
 10
-25.82872080799686
 20
13.2499999963948
 30
0.0
 11
-25.82872080799685
 21
-13.249999996391
 31
0.0
  0
ARC
  5
4FE
330
1F
100
AcDbEntity
  8
AM_9
100
AcDbCircle
 10
-26.32872080799685
 20
-13.24999999702635
 30
0.0
 40
0.4999999999999964
100
AcDbArc
 50
269.9999999453397
 51
0.0000000727930751
  0
ARC
  5
4FF
330
1F
100
AcDbEntity
  8
AM_9
100
AcDbCircle
 10
-26.32872080799686
 20
13.24999999703005
 30
0.0
 40
0.5
100
AcDbArc
 50
359.999999927208
 51
90.00000005465994
  0
LINE
  5
500
330
1F
100
AcDbEntity
  8
AM_9
100
AcDbLine
 10
-28.82872080847385
 20
-13.74999999705383
 30
0.0
 11
-26.32872080847385
 21
-13.74999999705383
 31
0.0
  0
LINE
  5
501
330
1F
100
AcDbEntity
  8
AM_9
100
AcDbLine
 10
-26.32872080847385
 20
13.74999999705757
 30
0.0
 11
-28.82872080847386
 21
13.74999999705757
 31
0.0
  0
LINE
  5
502
330
1F
100
AcDbEntity
  8
AM_9
100
AcDbLine
 10
-26.32872080847385
 20
13.74999999703005
 30
0.0
 11
-26.32872080847385
 21
-13.74999999702635
 31
0.0
  0
LINE
  5
503
330
1F
100
AcDbEntity
  8
AM_9
100
AcDbLine
 10
-30.32872080849656
 20
12.2499999989131
 30
0.0
 11
-30.32872080849656
 21
-12.2499999989093
 31
0.0
  0
ARC
  5
504
330
1F
100
AcDbEntity
  8
AM_9
100
AcDbCircle
 10
-28.82872080849655
 20
-12.24999999706389
 30
0.0
 40
1.500000000000004
100
AcDbArc
 50
180.0000000704891
 51
270.000000000867
  0
ARC
  5
505
330
1F
100
AcDbEntity
  8
AM_9
100
AcDbCircle
 10
-28.82872080849656
 20
12.2499999970677
 30
0.0
 40
1.500000000000005
100
AcDbArc
 50
89.99999999913314
 51
179.9999999295106
  0
LINE
  5
506
330
1F
100
AcDbEntity
  8
AM_9
100
AcDbLine
 10
-35.32872080849656
 20
12.24999999890544
 30
0.0
 11
-35.32872080849655
 21
-12.24999999890176
 31
0.0
  0
LINE
  5
507
330
1F
100
AcDbEntity
  8
AM_9
100
AcDbLine
 10
-38.32872080858267
 20
12.25000000000364
 30
0.0
 11
-38.32872080858265
 21
-12.24999999999996
 31
0.0
  0
ARC
  5
508
330
1F
100
AcDbEntity
  8
AM_9
100
AcDbCircle
 10
-36.82872080849656
 20
-12.24999999893446
 30
0.0
 40
1.499999999999993
100
AcDbArc
 50
180.0000000406991
 51
0.0000000012490165
  0
ARC
  5
509
330
1F
100
AcDbEntity
  8
AM_9
100
AcDbCircle
 10
-36.82872080849656
 20
12.24999999893814
 30
0.0
 40
1.5
100
AcDbArc
 50
359.9999999987512
 51
179.9999999593008
  0
LINE
  5
50A
330
1F
100
AcDbEntity
  8
AM_9
100
AcDbLine
 10
-0.4000000000000533
 20
5.000000000002018
 30
0.0
 11
-0.4000000000000514
 21
7.000000000002018
 31
0.0
  0
LINE
  5
50B
330
1F
100
AcDbEntity
  8
AM_9
100
AcDbLine
 10
-0.4000000000000533
 20
5.000000000002023
 30
0.0
 11
-0.0000000000000422
 21
4.600000000002012
 31
0.0
  0
LINE
  5
50C
330
1F
100
AcDbEntity
  8
AM_9
100
AcDbLine
 10
-0.0000000000000394
 20
7.400000000002023
 30
0.0
 11
-0.4000000000000515
 21
7.000000000002012
 31
0.0
  0
LINE
  5
50D
330
1F
100
AcDbEntity
  8
AM_9
100
AcDbLine
 10
-0.4000000000000672
 20
-6.999999999997973
 30
0.0
 11
-0.0000000000000561
 21
-7.399999999997984
 31
0.0
  0
LINE
  5
50E
330
1F
100
AcDbEntity
  8
AM_9
100
AcDbLine
 10
-0.0000000000000533
 20
-4.599999999997974
 30
0.0
 11
-0.4000000000000654
 21
-4.999999999997986
 31
0.0
  0
LINE
  5
50F
330
1F
100
AcDbEntity
  8
AM_9
100
AcDbLine
 10
-0.4000000000000672
 20
-6.999999999997979
 30
0.0
 11
-0.4000000000000652
 21
-4.999999999997979
 31
0.0
  0
LINE
  5
510
330
1F
100
AcDbEntity
  8
AM_9
100
AcDbLine
 10
-0.2500000000000562
 20
-1.199999999997974
 30
0.0
 11
-0.0000000000000562
 21
-1.449999999997974
 31
0.0
  0
LINE
  5
511
330
1F
100
AcDbEntity
  8
AM_9
100
AcDbLine
 10
-0.0000000000000535
 20
1.450000000002026
 30
0.0
 11
-0.2500000000000537
 21
1.200000000002026
 31
0.0
  0
LINE
  5
512
330
1F
100
AcDbEntity
  8
AM_9
100
AcDbLine
 10
-0.2500000000000562
 20
-1.199999999997974
 30
0.0
 11
-0.2500000000000538
 21
1.200000000002026
 31
0.0
  0
LINE
  5
513
330
1F
100
AcDbEntity
  8
AM_9
100
AcDbLine
 10
-4.999999999998145
 20
-0.9999999999992645
 30
0.0
 11
-4.999999999998143
 21
1.000000000000736
 31
0.0
  0
LINE
  5
514
330
1F
100
AcDbEntity
  8
AM_9
100
AcDbLine
 10
-4.999999999998145
 20
-0.999999999999264
 30
0.0
 11
-4.499999999998145
 21
-1.499999999999264
 31
0.0
  0
LINE
  5
515
330
1F
100
AcDbEntity
  8
AM_9
100
AcDbLine
 10
-4.499999999998142
 20
1.500000000000736
 30
0.0
 11
-4.999999999998143
 21
1.000000000000736
 31
0.0
  0
CIRCLE
  5
516
330
1F
100
AcDbEntity
  8
AM_9
100
AcDbCircle
 10
2.500000000001863
 20
-4.499999999999255
 30
0.0
 40
1.0
  0
LINE
  5
517
330
1F
100
AcDbEntity
  8
AM_9
100
AcDbLine
 10
-3.499999999998142
 20
1.300000000000736
 30
0.0
 11
-3.615470053836066
 21
1.500000000000736
 31
0.0
  0
LINE
  5
518
330
1F
100
AcDbEntity
  8
AM_9
100
AcDbLine
 10
-3.615470053836068
 20
-1.499999999999264
 30
0.0
 11
-3.499999999998144
 21
-1.299999999999265
 31
0.0
  0
LINE
  5
519
330
1F
100
AcDbEntity
  8
AM_9
100
AcDbLine
 10
-2.899999999998125
 20
1.300000000000736
 30
0.0
 11
-3.015470053836049
 21
1.500000000000736
 31
0.0
  0
LINE
  5
51A
330
1F
100
AcDbEntity
  8
AM_9
100
AcDbLine
 10
-3.015470053836051
 20
-1.499999999999264
 30
0.0
 11
-2.899999999998127
 21
-1.299999999999265
 31
0.0
  0
LINE
  5
51B
330
1F
100
AcDbEntity
  8
AM_9
100
AcDbLine
 10
-2.899999999998126
 20
-1.299999999999265
 30
0.0
 11
-2.784529946160202
 21
-1.499999999999265
 31
0.0
  0
LINE
  5
51C
330
1F
100
AcDbEntity
  8
AM_9
100
AcDbLine
 10
-2.784529946160199
 20
1.500000000000736
 30
0.0
 11
-2.899999999998124
 21
1.300000000000736
 31
0.0
  0
LINE
  5
51D
330
1F
100
AcDbEntity
  8
AM_9
100
AcDbLine
 10
-2.899999999998124
 20
1.300000000000735
 30
0.0
 11
-2.899999999998127
 21
-1.299999999999264
 31
0.0
  0
LINE
  5
51E
330
1F
100
AcDbEntity
  8
AM_9
100
AcDbLine
 10
-3.615470053836138
 20
1.500000000000736
 30
0.0
 11
-3.61547005383614
 21
-1.499999999999265
 31
0.0
  0
LINE
  5
51F
330
1F
100
AcDbEntity
  8
AM_9
100
AcDbLine
 10
-3.984529946160138
 20
-1.49999999999926
 30
0.0
 11
-3.61547005383614
 21
-1.49999999999926
 31
0.0
  0
LINE
  5
520
330
1F
100
AcDbEntity
  8
AM_9
100
AcDbLine
 10
-3.615470053836137
 20
1.50000000000074
 30
0.0
 11
-3.984529946160134
 21
1.50000000000074
 31
0.0
  0
LINE
  5
521
330
1F
100
AcDbEntity
  8
AM_9
100
AcDbLine
 10
-3.01547005383612
 20
1.500000000000736
 30
0.0
 11
-3.015470053836123
 21
-1.499999999999265
 31
0.0
  0
LINE
  5
522
330
1F
100
AcDbEntity
  8
AM_9
100
AcDbLine
 10
-3.384529946160148
 20
-1.49999999999926
 30
0.0
 11
-3.015470053836123
 21
-1.499999999999261
 31
0.0
  0
LINE
  5
523
330
1F
100
AcDbEntity
  8
AM_9
100
AcDbLine
 10
-3.01547005383612
 20
1.500000000000739
 30
0.0
 11
-3.384529946160145
 21
1.50000000000074
 31
0.0
  0
LINE
  5
524
330
1F
100
AcDbEntity
  8
AM_9
100
AcDbLine
 10
-4.499999999998145
 20
-1.499999999999259
 30
0.0
 11
-4.21547005383613
 21
-1.499999999999259
 31
0.0
  0
LINE
  5
525
330
1F
100
AcDbEntity
  8
AM_9
100
AcDbLine
 10
-4.215470053836126
 20
1.500000000000741
 30
0.0
 11
-4.499999999998142
 21
1.500000000000741
 31
0.0
  0
LINE
  5
526
330
1F
100
AcDbEntity
  8
AM_9
100
AcDbLine
 10
-2.299999999998135
 20
1.300000000000736
 30
0.0
 11
-2.415470053836059
 21
1.500000000000736
 31
0.0
  0
LINE
  5
527
330
1F
100
AcDbEntity
  8
AM_9
100
AcDbLine
 10
-2.415470053836062
 20
-1.499999999999264
 30
0.0
 11
-2.299999999998138
 21
-1.299999999999265
 31
0.0
  0
LINE
  5
528
330
1F
100
AcDbEntity
  8
AM_9
100
AcDbLine
 10
-4.215470053836126
 20
1.500000000000736
 30
0.0
 11
-4.21547005383613
 21
-1.499999999999265
 31
0.0
  0
LINE
  5
529
330
1F
100
AcDbEntity
  8
AM_9
100
AcDbLine
 10
-4.099999999998132
 20
1.300000000000737
 30
0.0
 11
-4.215470053836055
 21
1.500000000000735
 31
0.0
  0
LINE
  5
52A
330
1F
100
AcDbEntity
  8
AM_9
100
AcDbLine
 10
-4.215470053836058
 20
-1.499999999999265
 30
0.0
 11
-4.099999999998134
 21
-1.299999999999266
 31
0.0
  0
LINE
  5
52B
330
1F
100
AcDbEntity
  8
AM_9
100
AcDbLine
 10
-3.499999999998144
 20
-1.299999999999265
 30
0.0
 11
-3.38452994616022
 21
-1.499999999999265
 31
0.0
  0
LINE
  5
52C
330
1F
100
AcDbEntity
  8
AM_9
100
AcDbLine
 10
-3.384529946160217
 20
1.500000000000736
 30
0.0
 11
-3.499999999998141
 21
1.300000000000736
 31
0.0
  0
LINE
  5
52D
330
1F
100
AcDbEntity
  8
AM_9
100
AcDbLine
 10
-3.499999999998141
 20
1.300000000000735
 30
0.0
 11
-3.499999999998144
 21
-1.299999999999264
 31
0.0
  0
LINE
  5
52E
330
1F
100
AcDbEntity
  8
AM_9
100
AcDbLine
 10
-3.384529946160148
 20
-1.499999999999265
 30
0.0
 11
-3.384529946160145
 21
1.500000000000736
 31
0.0
  0
LINE
  5
52F
330
1F
100
AcDbEntity
  8
AM_9
100
AcDbLine
 10
-4.099999999998132
 20
-1.299999999999266
 30
0.0
 11
-3.984529946160209
 21
-1.499999999999265
 31
0.0
  0
LINE
  5
530
330
1F
100
AcDbEntity
  8
AM_9
100
AcDbLine
 10
-3.984529946160206
 20
1.500000000000736
 30
0.0
 11
-4.09999999999813
 21
1.300000000000737
 31
0.0
  0
LINE
  5
531
330
1F
100
AcDbEntity
  8
AM_9
100
AcDbLine
 10
-4.099999999998131
 20
1.300000000000735
 30
0.0
 11
-4.099999999998133
 21
-1.299999999999264
 31
0.0
  0
LINE
  5
532
330
1F
100
AcDbEntity
  8
AM_9
100
AcDbLine
 10
-3.984529946160138
 20
-1.499999999999265
 30
0.0
 11
-3.984529946160134
 21
1.500000000000736
 31
0.0
  0
LINE
  5
533
330
1F
100
AcDbEntity
  8
AM_9
100
AcDbLine
 10
-2.299999999998137
 20
-1.299999999999265
 30
0.0
 11
-2.184529946160213
 21
-1.499999999999265
 31
0.0
  0
LINE
  5
534
330
1F
100
AcDbEntity
  8
AM_9
100
AcDbLine
 10
-2.18452994616021
 20
1.500000000000736
 30
0.0
 11
-2.299999999998134
 21
1.300000000000736
 31
0.0
  0
LINE
  5
535
330
1F
100
AcDbEntity
  8
AM_9
100
AcDbLine
 10
-2.299999999998135
 20
1.300000000000735
 30
0.0
 11
-2.299999999998137
 21
-1.299999999999264
 31
0.0
  0
LINE
  5
536
330
1F
100
AcDbEntity
  8
AM_9
100
AcDbLine
 10
-2.184529946160142
 20
-1.499999999999261
 30
0.0
 11
-1.815470053836144
 21
-1.499999999999262
 31
0.0
  0
LINE
  5
537
330
1F
100
AcDbEntity
  8
AM_9
100
AcDbLine
 10
-1.815470053836141
 20
1.500000000000738
 30
0.0
 11
-2.184529946160138
 21
1.500000000000739
 31
0.0
  0
LINE
  5
538
330
1F
100
AcDbEntity
  8
AM_9
100
AcDbLine
 10
-2.184529946160141
 20
-1.499999999999265
 30
0.0
 11
-2.184529946160139
 21
1.500000000000736
 31
0.0
  0
LINE
  5
539
330
1F
100
AcDbEntity
  8
AM_9
100
AcDbLine
 10
-2.415470053836131
 20
1.500000000000736
 30
0.0
 11
-2.415470053836133
 21
-1.499999999999264
 31
0.0
  0
LINE
  5
53A
330
1F
100
AcDbEntity
  8
AM_9
100
AcDbLine
 10
-2.784529946160131
 20
-1.499999999999261
 30
0.0
 11
-2.415470053836134
 21
-1.499999999999261
 31
0.0
  0
LINE
  5
53B
330
1F
100
AcDbEntity
  8
AM_9
100
AcDbLine
 10
-2.41547005383613
 20
1.500000000000739
 30
0.0
 11
-2.784529946160128
 21
1.500000000000739
 31
0.0
  0
LINE
  5
53C
330
1F
100
AcDbEntity
  8
AM_9
100
AcDbLine
 10
-2.784529946160131
 20
-1.499999999999264
 30
0.0
 11
-2.784529946160128
 21
1.500000000000736
 31
0.0
  0
LINE
  5
53D
330
1F
100
AcDbEntity
  8
AM_9
100
AcDbLine
 10
-1.699999999998148
 20
-1.299999999999265
 30
0.0
 11
-1.584529946160224
 21
-1.499999999999265
 31
0.0
  0
LINE
  5
53E
330
1F
100
AcDbEntity
  8
AM_9
100
AcDbLine
 10
-1.584529946160221
 20
1.500000000000736
 30
0.0
 11
-1.699999999998145
 21
1.300000000000736
 31
0.0
  0
LINE
  5
53F
330
1F
100
AcDbEntity
  8
AM_9
100
AcDbLine
 10
-1.815470053836141
 20
1.500000000000736
 30
0.0
 11
-1.815470053836144
 21
-1.499999999999265
 31
0.0
  0
LINE
  5
540
330
1F
100
AcDbEntity
  8
AM_9
100
AcDbLine
 10
-1.699999999998146
 20
1.300000000000736
 30
0.0
 11
-1.81547005383607
 21
1.500000000000736
 31
0.0
  0
LINE
  5
541
330
1F
100
AcDbEntity
  8
AM_9
100
AcDbLine
 10
-1.815470053836073
 20
-1.499999999999264
 30
0.0
 11
-1.699999999998149
 21
-1.299999999999265
 31
0.0
  0
LINE
  5
542
330
1F
100
AcDbEntity
  8
AM_9
100
AcDbLine
 10
-1.699999999998145
 20
1.300000000000735
 30
0.0
 11
-1.699999999998148
 21
-1.299999999999264
 31
0.0
  0
LINE
  5
543
330
1F
100
AcDbEntity
  8
AM_9
100
AcDbLine
 10
-0.4999999999981408
 20
-1.299999999999265
 30
0.0
 11
-0.3845299461602168
 21
-1.499999999999265
 31
0.0
  0
LINE
  5
544
330
1F
100
AcDbEntity
  8
AM_9
100
AcDbLine
 10
-0.3845299461602139
 20
1.500000000000736
 30
0.0
 11
-0.4999999999981382
 21
1.300000000000736
 31
0.0
  0
LINE
  5
545
330
1F
100
AcDbEntity
  8
AM_0
100
AcDbLine
 10
0.8154700538398612
 20
-1.499999999999264
 30
0.0
 11
1.00000000000186
 21
-1.499999999999265
 31
0.0
  0
LINE
  5
546
330
1F
100
AcDbEntity
  8
AM_0
100
AcDbLine
 10
1.000000000001863
 20
1.500000000000736
 30
0.0
 11
0.815470053839864
 21
1.500000000000736
 31
0.0
  0
LINE
  5
547
330
1F
100
AcDbEntity
  8
AM_9
100
AcDbLine
 10
-0.4999999999981393
 20
1.300000000000736
 30
0.0
 11
-0.6154700538360631
 21
1.500000000000736
 31
0.0
  0
LINE
  5
548
330
1F
100
AcDbEntity
  8
AM_9
100
AcDbLine
 10
-0.6154700538360659
 20
-1.499999999999264
 30
0.0
 11
-0.4999999999981419
 21
-1.299999999999265
 31
0.0
  0
LINE
  5
549
330
1F
100
AcDbEntity
  8
AM_9
100
AcDbLine
 10
-0.4999999999981388
 20
1.300000000000735
 30
0.0
 11
-0.4999999999981414
 21
-1.299999999999264
 31
0.0
  0
LINE
  5
54A
330
1F
100
AcDbEntity
  8
AM_9
100
AcDbLine
 10
-1.584529946160124
 20
-1.499999999999262
 30
0.0
 11
-1.215470053836127
 21
-1.499999999999262
 31
0.0
  0
LINE
  5
54B
330
1F
100
AcDbEntity
  8
AM_9
100
AcDbLine
 10
-1.215470053836124
 20
1.500000000000738
 30
0.0
 11
-1.584529946160121
 21
1.500000000000738
 31
0.0
  0
LINE
  5
54C
330
1F
100
AcDbEntity
  8
AM_9
100
AcDbLine
 10
-1.584529946160125
 20
-1.499999999999265
 30
0.0
 11
-1.584529946160121
 21
1.500000000000736
 31
0.0
  0
LINE
  5
54D
330
1F
100
AcDbEntity
  8
AM_9
100
AcDbLine
 10
0.0000000000018635
 20
1.47320508075765
 30
0.0
 11
-0.0154700538360459
 21
1.500000000000736
 31
0.0
  0
LINE
  5
54E
330
1F
100
AcDbEntity
  8
AM_0
100
AcDbLine
 10
0.1000000000018779
 20
1.300000000000736
 30
0.0
 11
0.0000000000018635
 21
1.47320508075765
 31
0.0
  0
LINE
  5
54F
330
1F
100
AcDbEntity
  8
AM_0
100
AcDbLine
 10
0.0000000000018606
 20
-1.473205080756179
 30
0.0
 11
0.1000000000018754
 21
-1.299999999999265
 31
0.0
  0
LINE
  5
550
330
1F
100
AcDbEntity
  8
AM_9
100
AcDbLine
 10
-0.0154700538360488
 20
-1.499999999999264
 30
0.0
 11
0.0000000000018606
 21
-1.473205080756179
 31
0.0
  0
LINE
  5
551
330
1F
100
AcDbEntity
  8
AM_0
100
AcDbLine
 10
0.2154700538398441
 20
-1.499999999999264
 30
0.0
 11
0.5845299461638691
 21
-1.499999999999264
 31
0.0
  0
LINE
  5
552
330
1F
100
AcDbEntity
  8
AM_0
100
AcDbLine
 10
0.584529946163872
 20
1.500000000000736
 30
0.0
 11
0.2154700538398469
 21
1.500000000000737
 31
0.0
  0
LINE
  5
553
330
1F
100
AcDbEntity
  8
AM_0
100
AcDbLine
 10
0.1000000000018764
 20
-1.299999999999265
 30
0.0
 11
0.2154700538398004
 21
-1.499999999999265
 31
0.0
  0
LINE
  5
554
330
1F
100
AcDbEntity
  8
AM_0
100
AcDbLine
 10
0.2154700538398033
 20
1.500000000000736
 30
0.0
 11
0.1000000000018789
 21
1.300000000000736
 31
0.0
  0
LINE
  5
555
330
1F
100
AcDbEntity
  8
AM_0
100
AcDbLine
 10
0.1000000000018784
 20
1.300000000000735
 30
0.0
 11
0.1000000000018759
 21
-1.299999999999264
 31
0.0
  0
LINE
  5
556
330
1F
100
AcDbEntity
  8
AM_0
100
AcDbLine
 10
0.2154700538398439
 20
-1.499999999999265
 30
0.0
 11
0.2154700538398469
 21
1.500000000000736
 31
0.0
  0
LINE
  5
557
330
1F
100
AcDbEntity
  8
AM_0
100
AcDbLine
 10
0.7000000000018658
 20
-1.299999999999265
 30
0.0
 11
0.8154700538397899
 21
-1.499999999999265
 31
0.0
  0
LINE
  5
558
330
1F
100
AcDbEntity
  8
AM_0
100
AcDbLine
 10
0.8154700538397928
 20
1.500000000000736
 30
0.0
 11
0.7000000000018683
 21
1.300000000000736
 31
0.0
  0
LINE
  5
559
330
1F
100
AcDbEntity
  8
AM_0
100
AcDbLine
 10
0.8154700538398612
 20
-1.499999999999265
 30
0.0
 11
0.815470053839864
 21
1.500000000000736
 31
0.0
  0
LINE
  5
55A
330
1F
100
AcDbEntity
  8
AM_9
100
AcDbLine
 10
-1.09999999999813
 20
-1.299999999999265
 30
0.0
 11
-0.9845299461602064
 21
-1.499999999999265
 31
0.0
  0
LINE
  5
55B
330
1F
100
AcDbEntity
  8
AM_9
100
AcDbLine
 10
-0.9845299461602034
 20
1.500000000000736
 30
0.0
 11
-1.099999999998128
 21
1.300000000000736
 31
0.0
  0
LINE
  5
55C
330
1F
100
AcDbEntity
  8
AM_9
100
AcDbLine
 10
-1.215470053836124
 20
1.500000000000736
 30
0.0
 11
-1.215470053836127
 21
-1.499999999999265
 31
0.0
  0
LINE
  5
55D
330
1F
100
AcDbEntity
  8
AM_9
100
AcDbLine
 10
-1.099999999998129
 20
1.300000000000736
 30
0.0
 11
-1.215470053836053
 21
1.500000000000736
 31
0.0
  0
LINE
  5
55E
330
1F
100
AcDbEntity
  8
AM_9
100
AcDbLine
 10
-1.215470053836056
 20
-1.499999999999264
 30
0.0
 11
-1.099999999998131
 21
-1.299999999999265
 31
0.0
  0
LINE
  5
55F
330
1F
100
AcDbEntity
  8
AM_9
100
AcDbLine
 10
-1.099999999998128
 20
1.300000000000735
 30
0.0
 11
-1.099999999998131
 21
-1.299999999999264
 31
0.0
  0
LINE
  5
560
330
1F
100
AcDbEntity
  8
AM_0
100
AcDbLine
 10
0.584529946163872
 20
1.500000000000736
 30
0.0
 11
0.5845299461638691
 21
-1.499999999999265
 31
0.0
  0
LINE
  5
561
330
1F
100
AcDbEntity
  8
AM_0
100
AcDbLine
 10
0.7000000000018674
 20
1.300000000000736
 30
0.0
 11
0.5845299461639435
 21
1.500000000000736
 31
0.0
  0
LINE
  5
562
330
1F
100
AcDbEntity
  8
AM_0
100
AcDbLine
 10
0.5845299461639407
 20
-1.499999999999264
 30
0.0
 11
0.7000000000018647
 21
-1.299999999999265
 31
0.0
  0
LINE
  5
563
330
1F
100
AcDbEntity
  8
AM_0
100
AcDbLine
 10
0.7000000000018679
 20
1.300000000000735
 30
0.0
 11
0.7000000000018652
 21
-1.299999999999264
 31
0.0
  0
LINE
  5
564
330
1F
100
AcDbEntity
  8
AM_9
100
AcDbLine
 10
-0.6154700538361346
 20
1.500000000000736
 30
0.0
 11
-0.6154700538361375
 21
-1.499999999999265
 31
0.0
  0
LINE
  5
565
330
1F
100
AcDbEntity
  8
AM_9
100
AcDbLine
 10
-0.9845299461601347
 20
-1.499999999999263
 30
0.0
 11
-0.6154700538361376
 21
-1.499999999999263
 31
0.0
  0
LINE
  5
566
330
1F
100
AcDbEntity
  8
AM_9
100
AcDbLine
 10
-0.615470053836135
 20
1.500000000000737
 30
0.0
 11
-0.9845299461601317
 21
1.500000000000737
 31
0.0
  0
LINE
  5
567
330
1F
100
AcDbEntity
  8
AM_9
100
AcDbLine
 10
-0.9845299461601351
 20
-1.499999999999265
 30
0.0
 11
-0.984529946160132
 21
1.500000000000736
 31
0.0
  0
LINE
  5
568
330
1F
100
AcDbEntity
  8
AM_9
100
AcDbLine
 10
-0.0154700538361174
 20
1.500000000000736
 30
0.0
 11
-0.0154700538361204
 21
-1.499999999999265
 31
0.0
  0
LINE
  5
569
330
1F
100
AcDbEntity
  8
AM_9
100
AcDbLine
 10
-0.3845299461601456
 20
-1.499999999999263
 30
0.0
 11
-0.0154700538361204
 21
-1.499999999999263
 31
0.0
  0
LINE
  5
56A
330
1F
100
AcDbEntity
  8
AM_9
100
AcDbLine
 10
-0.0154700538361174
 20
1.500000000000737
 30
0.0
 11
-0.3845299461601425
 21
1.500000000000737
 31
0.0
  0
LINE
  5
56B
330
1F
100
AcDbEntity
  8
AM_9
100
AcDbLine
 10
-0.3845299461601455
 20
-1.499999999999265
 30
0.0
 11
-0.3845299461601426
 21
1.500000000000736
 31
0.0
  0
CIRCLE
  5
56C
330
1F
100
AcDbEntity
  8
AM_9
100
AcDbCircle
 10
2.50000000000189
 20
4.50000000000074
 30
0.0
 40
1.0
  0
CIRCLE
  5
56D
330
1F
100
AcDbEntity
  8
AM_9
100
AcDbCircle
 10
23.50000000000185
 20
-8.499999999999286
 30
0.0
 40
1.0
  0
LINE
  5
56E
330
1F
100
AcDbEntity
  8
AM_9
100
AcDbLine
 10
8.000000000001865
 20
-1.299999999999264
 30
0.0
 11
8.000000000001869
 21
1.300000000000735
 31
0.0
  0
ARC
  5
56F
330
1F
100
AcDbEntity
  8
AM_9
100
AcDbCircle
 10
8.000000000001869
 20
1.500000000000738
 30
0.0
 40
0.2000000000000026
100
AcDbArc
 50
270.0
 51
359.9999999999991
  0
ARC
  5
570
330
1F
100
AcDbEntity
  8
AM_9
100
AcDbCircle
 10
8.000000000001865
 20
-1.499999999999267
 30
0.0
 40
0.2000000000000011
100
AcDbArc
 50
0.0000000000008269
 51
90.0
  0
LINE
  5
571
330
1F
100
AcDbEntity
  8
AM_9
100
AcDbLine
 10
0.0000000000018882
 20
2.500000000000751
 30
0.0
 11
0.0000000000018882
 21
9.800000000000738
 31
0.0
  0
LINE
  5
572
330
1F
100
AcDbEntity
  8
AM_9
100
AcDbLine
 10
25.50000000000185
 20
-6.999999999999284
 30
0.0
 11
25.50000000000185
 21
-4.999999999999283
 31
0.0
  0
LINE
  5
573
330
1F
100
AcDbEntity
  8
AM_9
100
AcDbLine
 10
25.50000000000185
 20
-6.999999999999284
 30
0.0
 11
26.00000000000185
 21
-7.499999999999285
 31
0.0
  0
LINE
  5
574
330
1F
100
AcDbEntity
  8
AM_9
100
AcDbLine
 10
26.00000000000185
 20
-4.499999999999283
 30
0.0
 11
25.50000000000185
 21
-4.999999999999282
 31
0.0
  0
LINE
  5
575
330
1F
100
AcDbEntity
  8
AM_9
100
AcDbLine
 10
8.200000000001872
 20
-1.499999999999271
 30
0.0
 11
18.00000000000185
 21
-1.499999999999281
 31
0.0
  0
LINE
  5
576
330
1F
100
AcDbEntity
  8
AM_9
100
AcDbLine
 10
18.00000000000185
 20
1.500000000000719
 30
0.0
 11
8.200000000001873
 21
1.500000000000729
 31
0.0
  0
LINE
  5
577
330
1F
100
AcDbEntity
  8
AM_9
100
AcDbLine
 10
8.200000000001872
 20
-1.499999999999265
 30
0.0
 11
8.200000000001873
 21
1.500000000000736
 31
0.0
  0
LINE
  5
578
330
1F
100
AcDbEntity
  8
AM_9
100
AcDbLine
 10
23.50000000000185
 20
-1.199999999999292
 30
0.0
 11
23.50000000000185
 21
1.200000000000708
 31
0.0
  0
LINE
  5
579
330
1F
100
AcDbEntity
  8
AM_9
100
AcDbLine
 10
23.50000000000186
 20
-1.199999999999292
 30
0.0
 11
23.80000000000186
 21
-1.499999999999302
 31
0.0
  0
LINE
  5
57A
330
1F
100
AcDbEntity
  8
AM_9
100
AcDbLine
 10
23.80000000000186
 20
1.500000000000717
 30
0.0
 11
23.50000000000186
 21
1.200000000000708
 31
0.0
  0
CIRCLE
  5
57B
330
1F
100
AcDbEntity
  8
AM_9
100
AcDbCircle
 10
23.50000000000188
 20
8.500000000000716
 30
0.0
 40
1.0
  0
LINE
  5
57C
330
1F
100
AcDbEntity
  8
AM_9
100
AcDbLine
 10
25.50000000000188
 20
5.000000000000714
 30
0.0
 11
26.00000000000188
 21
4.500000000000713
 31
0.0
  0
LINE
  5
57D
330
1F
100
AcDbEntity
  8
AM_9
100
AcDbLine
 10
26.00000000000188
 20
7.500000000000712
 30
0.0
 11
25.50000000000188
 21
7.000000000000713
 31
0.0
  0
LINE
  5
57E
330
1F
100
AcDbEntity
  8
AM_9
100
AcDbLine
 10
25.50000000000188
 20
5.000000000000713
 30
0.0
 11
25.50000000000188
 21
7.000000000000713
 31
0.0
  0
LINE
  5
57F
330
1F
100
AcDbEntity
  8
AM_9
100
AcDbLine
 10
0.0000000000018605
 20
-9.799999999999255
 30
0.0
 11
0.0000000000018605
 21
-2.499999999999253
 31
0.0
  0
LINE
  5
580
330
1F
100
AcDbEntity
  8
AM_9
100
AcDbLine
 10
6.500000000001865
 20
-1.099999999999265
 30
0.0
 11
7.000000000001865
 21
-1.599999999999265
 31
0.0
  0
LINE
  5
581
330
1F
100
AcDbEntity
  8
AM_9
100
AcDbLine
 10
7.000000000001869
 20
1.600000000000735
 30
0.0
 11
6.500000000001868
 21
1.100000000000736
 31
0.0
  0
LINE
  5
582
330
1F
100
AcDbEntity
  8
AM_9
100
AcDbLine
 10
7.000000000001865
 20
-1.599999999999264
 30
0.0
 11
7.000000000001869
 21
1.600000000000736
 31
0.0
  0
LINE
  5
583
330
1F
100
AcDbEntity
  8
AM_9
100
AcDbLine
 10
7.000000000001865
 20
-1.59999999999927
 30
0.0
 11
18.00000000000185
 21
-1.599999999999281
 31
0.0
  0
LINE
  5
584
330
1F
100
AcDbEntity
  8
AM_9
100
AcDbLine
 10
18.00000000000185
 20
1.600000000000719
 30
0.0
 11
7.000000000001869
 21
1.60000000000073
 31
0.0
  0
LINE
  5
585
330
1F
100
AcDbEntity
  8
AM_9
100
AcDbLine
 10
23.80000000000188
 20
-1.599999999999291
 30
0.0
 11
25.00000000000186
 21
-1.599999999999292
 31
0.0
  0
LINE
  5
586
330
1F
100
AcDbEntity
  8
AM_9
100
AcDbLine
 10
25.00000000000188
 20
1.600000000000708
 30
0.0
 11
23.80000000000188
 21
1.600000000000709
 31
0.0
  0
LINE
  5
587
330
1F
100
AcDbEntity
  8
AM_9
100
AcDbLine
 10
23.80000000000188
 20
-1.599999999999292
 30
0.0
 11
23.80000000000188
 21
1.600000000000708
 31
0.0
  0
LINE
  5
588
330
1F
100
AcDbEntity
  8
AM_9
100
AcDbLine
 10
-1.000000000000042
 20
15.39455820147985
 30
0.0
 11
-11.50000000000005
 21
15.85299810201923
 31
0.0
  0
LINE
  5
589
330
1F
100
AcDbEntity
  8
AM_9
100
AcDbLine
 10
-11.50000000000004
 20
19.00000000000206
 30
0.0
 11
-1.000000000000028
 21
18.54156009946269
 31
0.0
  0
LINE
  5
58A
330
1F
100
AcDbEntity
  8
AM_9
100
AcDbLine
 10
-4.000000000000044
 20
2.82745707181592
 30
0.0
 11
-11.50000000000005
 21
2.500000000002042
 31
0.0
  0
LINE
  5
58B
330
1F
100
AcDbEntity
  8
AM_9
100
AcDbLine
 10
-11.50000000000004
 20
2.949571699713882
 30
0.0
 11
-4.000000000000044
 21
3.277028771527746
 31
0.0
  0
LINE
  5
58C
330
1F
100
AcDbEntity
  8
AM_9
100
AcDbLine
 10
-11.50000000000005
 20
-2.949571699709747
 30
0.0
 11
-4.000000000000059
 21
-3.277028771523582
 31
0.0
  0
LINE
  5
58D
330
1F
100
AcDbEntity
  8
AM_9
100
AcDbLine
 10
-4.000000000000059
 20
-2.82745707181177
 30
0.0
 11
-11.50000000000005
 21
-2.499999999997921
 31
0.0
  0
LINE
  5
58E
330
1F
100
AcDbEntity
  8
AM_9
100
AcDbLine
 10
-1.000000000000056
 20
-15.39455820147574
 30
0.0
 11
-11.50000000000005
 21
-15.85299810201511
 31
0.0
  0
LINE
  5
58F
330
1F
100
AcDbEntity
  8
AM_9
100
AcDbLine
 10
-11.50000000000008
 20
-18.99999999999795
 30
0.0
 11
-1.00000000000007
 21
-18.54156009945855
 31
0.0
  0
LINE
  5
590
330
1F
100
AcDbEntity
  8
AM_9
100
AcDbLine
 10
-31.32872080853247
 20
12.24999999892207
 30
0.0
 11
-31.32872080853245
 21
-12.24999999891833
 31
0.0
  0
ARC
  5
591
330
1F
100
AcDbEntity
  8
AM_9
100
AcDbCircle
 10
-28.82872080853245
 20
-12.2499999969902
 30
0.0
 40
2.5
100
AcDbArc
 50
180.0000000441879
 51
270.0000000008662
  0
ARC
  5
592
330
1F
100
AcDbEntity
  8
AM_9
100
AcDbCircle
 10
-28.82872080853246
 20
12.24999999699401
 30
0.0
 40
2.5
100
AcDbArc
 50
89.99999999913383
 51
179.999999955812
  0
LINE
  5
593
330
1F
100
AcDbEntity
  8
AM_9
100
AcDbLine
 10
-28.82872080849465
 20
-14.7499999970243
 30
0.0
 11
-22.82872080843086
 21
-14.7499999970243
 31
0.0
  0
LINE
  5
594
330
1F
100
AcDbEntity
  8
AM_9
100
AcDbLine
 10
-22.82872080843087
 20
14.7499999970281
 30
0.0
 11
-28.82872080849465
 21
14.7499999970281
 31
0.0
  0
LINE
  5
595
330
1F
100
AcDbEntity
  8
AM_9
100
AcDbLine
 10
-28.82872080849466
 20
14.74999999699401
 30
0.0
 11
-28.82872080849465
 21
-14.74999999699019
 31
0.0
  0
LINE
  5
596
330
1F
100
AcDbEntity
  8
AM_9
100
AcDbLine
 10
-22.82872080843087
 20
14.74999999818521
 30
0.0
 11
-22.82872080843086
 21
-14.74999999818139
 31
0.0
  0
LINE
  5
597
330
1F
100
AcDbEntity
  8
AM_0
100
AcDbLine
 10
-34.32872080853247
 20
12.24999999885427
 30
0.0
 11
-34.32872080853245
 21
-12.24999999885053
 31
0.0
  0
LINE
  5
598
330
1F
100
AcDbEntity
  8
AM_0
100
AcDbLine
 10
-39.32872080858267
 20
12.2500000000036
 30
0.0
 11
-39.32872080858265
 21
-12.24999999999981
 31
0.0
  0
ARC
  5
599
330
1F
100
AcDbEntity
  8
AM_0
100
AcDbCircle
 10
-36.82872080853245
 20
-12.24999999890486
 30
0.0
 40
2.5
100
AcDbArc
 50
180.000000025097
 51
0.0000000012436427
  0
ARC
  5
59A
330
1F
100
AcDbEntity
  8
AM_0
100
AcDbCircle
 10
-36.82872080853247
 20
12.24999999890854
 30
0.0
 40
2.5
100
AcDbArc
 50
359.9999999987565
 51
179.9999999749029
  0
LINE
  5
59B
330
1F
100
AcDbEntity
  8
AM_0
100
AcDbLine
 10
25.00000000000188
 20
0.4000000000007331
 30
0.0
 11
24.00000000000188
 21
0.4000000000007192
 31
0.0
  0
LINE
  5
59C
330
1F
100
AcDbEntity
  8
AM_0
100
AcDbLine
 10
25.00000000000188
 20
2.2000000000007
 30
0.0
 11
24.70000000000189
 21
2.500000000000688
 31
0.0
  0
LINE
  5
59D
330
1F
100
AcDbEntity
  8
AM_0
100
AcDbLine
 10
25.00000000000186
 20
2.200000000000724
 30
0.0
 11
25.00000000000188
 21
0.4000000000007331
 31
0.0
  0
LINE
  5
59E
330
1F
100
AcDbEntity
  8
AM_0
100
AcDbLine
 10
24.00000000000185
 20
-0.3999999999992898
 30
0.0
 11
25.00000000000185
 21
-0.3999999999992898
 31
0.0
  0
LINE
  5
59F
330
1F
100
AcDbEntity
  8
AM_0
100
AcDbLine
 10
25.00000000000185
 20
-0.3999999999992898
 30
0.0
 11
25.00000000000185
 21
-2.199999999999292
 31
0.0
  0
LINE
  5
5A0
330
1F
100
AcDbEntity
  8
AM_0
100
AcDbLine
 10
24.70000000000185
 20
-2.499999999999306
 30
0.0
 11
25.00000000000185
 21
-2.199999999999306
 31
0.0
  0
LINE
  5
5A1
330
1F
100
AcDbEntity
  8
AM_0
100
AcDbLine
 10
-0.8000000000292209
 20
16.30000000014198
 30
0.0
 11
-0.8000000000000084
 21
19.78778310294749
 31
0.0
  0
LINE
  5
5A2
330
1F
100
AcDbEntity
  8
AM_0
100
AcDbLine
 10
-0.8000006289866212
 20
19.78812583531773
 30
0.0
 11
-0.9912734645020342
 21
19.80829173287749
 31
0.0
  0
LINE
  5
5A3
330
1F
100
AcDbEntity
  8
AM_0
100
AcDbLine
 10
-0.0000000097545954
 20
15.95555546770004
 30
0.0
 11
-0.0034734933479917
 21
16.30064262055777
 31
0.0
  0
LINE
  5
5A4
330
1F
100
AcDbEntity
  8
AM_0
100
AcDbLine
 10
-0.0032163726067805
 20
16.30000000000214
 30
0.0
 11
-0.8000000000255916
 21
16.30000000000214
 31
0.0
  0
LWPOLYLINE
  5
5A5
330
1F
100
AcDbEntity
  8
AM_9
100
AcDbPolyline
 90
        9
 70
     0
 43
0.0
 10
-0.0000000000000687
 20
-18.80832980980918
 10
-0.0190024926343625
 20
-19.00235014519249
 10
-0.0752877810845877
 20
-19.18899674058777
 10
-0.166716743792364
 20
-19.36117609488657
 10
-0.2898146243768615
 20
-19.51234453426522
 10
-0.4399030896998742
 20
-19.63675690441205
 10
-0.6112780298478184
 20
-19.72968491503243
 10
-0.7974263427449696
 20
-19.78759683845167
 10
-0.9912734645018955
 20
-19.80829173287335
  0
LINE
  5
5A6
330
1F
100
AcDbEntity
  8
AM_9
100
AcDbLine
 10
-0.0000000000000687
 20
-18.80832980980919
 30
0.0
 11
-0.0000000000000547
 21
-15.80844403854836
 31
0.0
  0
LWPOLYLINE
  5
5A7
330
1F
100
AcDbEntity
  8
AM_0
100
AcDbPolyline
 90
       15
 70
     0
 43
0.0
 10
-0.9903595406501556
 20
-19.72992636784877
 10
-0.7076153910671852
 20
-19.6813161907465
 10
-0.4829827665693304
 20
-19.56679451020369
 10
-0.3194990573387987
 20
-19.41623273072975
 10
-0.209316094079557
 20
-19.25060255248673
 10
-0.1240766560628289
 20
-19.02598140689075
 10
-0.0859223770516171
 20
-18.79827520421338
 10
-0.063864568062435
 20
-18.53560771121092
 10
-0.0476250176572298
 20
-18.22108687996452
 10
-0.0360337612253459
 20
-17.85020314008171
 10
-0.0281058629013044
 20
-17.42149177930023
 10
-0.0240828275361626
 20
-17.06227752186122
 10
-0.0214217201588972
 20
-16.67201487465847
 10
-0.0199446148226174
 20
-16.25291853221687
 10
-0.0195515948635211
 20
-15.80844403841617
  0
LWPOLYLINE
  5
5A8
330
1F
100
AcDbEntity
  8
AM_0
100
AcDbPolyline
 90
        3
 70
     0
 43
0.0
 10
-0.9851258819886269
 20
-19.73112096060665
 10
-0.9851351053598912
 20
-19.73138378758102
 10
-0.9912734645016897
 20
-19.80829173287346
  0
LINE
  5
5A9
330
1F
100
AcDbEntity
  8
AM_4
100
AcDbLine
 10
-0.0186427238152661
 20
-15.80844403653922
 30
0.0
 11
-11.50000000000005
 21
-15.90015230774129
 31
0.0
  0
CIRCLE
  5
5AA
330
1F
100
AcDbEntity
  8
AM_9
100
AcDbCircle
 10
2.500000000001863
 20
-4.499999999999255
 30
0.0
 40
1.2
  0
CIRCLE
  5
5AB
330
1F
100
AcDbEntity
  8
AM_9
100
AcDbCircle
 10
2.50000000000189
 20
4.50000000000074
 30
0.0
 40
1.2
  0
CIRCLE
  5
5AC
330
1F
100
AcDbEntity
  8
AM_9
100
AcDbCircle
 10
23.50000000000185
 20
-8.499999999999286
 30
0.0
 40
1.2
  0
CIRCLE
  5
5AD
330
1F
100
AcDbEntity
  8
AM_9
100
AcDbCircle
 10
23.50000000000188
 20
8.500000000000716
 30
0.0
 40
1.2
  0
LINE
  5
5AE
330
1F
100
AcDbEntity
  8
AM_0
100
AcDbLine
 10
24.00000000000188
 20
0.4000000000007192
 30
0.0
 11
24.00000000000185
 21
-0.3999999999992898
 31
0.0
  0
LINE
  5
5AF
330
1F
100
AcDbEntity
  8
AM_0
100
AcDbLine
 10
24.70000000000189
 20
0.4000000000007331
 30
0.0
 11
24.70000000000186
 21
2.500000000000708
 31
0.0
  0
LINE
  5
5B0
330
1F
100
AcDbEntity
  8
AM_0
100
AcDbLine
 10
24.70000000000189
 20
2.500000000000715
 30
0.0
 11
18.00000000000185
 21
2.500000000000722
 31
0.0
  0
LINE
  5
5B1
330
1F
100
AcDbEntity
  8
AM_0
100
AcDbLine
 10
18.00000000000184
 20
-2.499999999999278
 30
0.0
 11
24.70000000000185
 21
-2.499999999999285
 31
0.0
  0
LINE
  5
5B2
330
1F
100
AcDbEntity
  8
AM_0
100
AcDbLine
 10
24.70000000000186
 20
-2.499999999999292
 30
0.0
 11
24.70000000000186
 21
-0.3999999999992898
 31
0.0
  0
CIRCLE
  5
5B3
330
1F
100
AcDbEntity
  8
AM_0
100
AcDbCircle
 10
2.500000000001863
 20
-4.499999999999255
 30
0.0
 40
1.604999999999994
  0
CIRCLE
  5
5B4
330
1F
100
AcDbEntity
  8
AM_0
100
AcDbCircle
 10
2.50000000000189
 20
4.50000000000074
 30
0.0
 40
1.604999999999994
  0
CIRCLE
  5
5B5
330
1F
100
AcDbEntity
  8
AM_0
100
AcDbCircle
 10
23.50000000000185
 20
-8.499999999999286
 30
0.0
 40
1.605
  0
CIRCLE
  5
5B6
330
1F
100
AcDbEntity
  8
AM_0
100
AcDbCircle
 10
23.50000000000188
 20
8.500000000000716
 30
0.0
 40
1.604999999999994
  0
CIRCLE
  5
5B7
330
1F
100
AcDbEntity
  8
AM_0
100
AcDbCircle
 10
2.500000000001863
 20
-4.499999999999255
 30
0.0
 40
1.77735026918963
  0
CIRCLE
  5
5B8
330
1F
100
AcDbEntity
  8
AM_0
100
AcDbCircle
 10
2.50000000000189
 20
4.50000000000074
 30
0.0
 40
1.77735026918963
  0
CIRCLE
  5
5B9
330
1F
100
AcDbEntity
  8
AM_0
100
AcDbCircle
 10
23.50000000000188
 20
8.500000000000716
 30
0.0
 40
1.77735026918963
  0
CIRCLE
  5
5BA
330
1F
100
AcDbEntity
  8
AM_0
100
AcDbCircle
 10
23.50000000000185
 20
-8.499999999999286
 30
0.0
 40
1.77735026918963
  0
LINE
  5
5BB
330
1F
100
AcDbEntity
  8
AM_0
100
AcDbLine
 10
26.00000000000185
 20
-3.499999999999281
 30
0.0
 11
23.00000000000185
 21
-3.499999999999281
 31
0.0
  0
LINE
  5
5BC
330
1F
100
AcDbEntity
  8
AM_0
100
AcDbLine
 10
23.00000000000185
 20
-2.749999999999281
 30
0.0
 11
18.00000000000185
 21
-2.749999999999267
 31
0.0
  0
LINE
  5
5BD
330
1F
100
AcDbEntity
  8
AM_0
100
AcDbLine
 10
18.00000000000185
 20
-2.749999999999267
 30
0.0
 11
18.00000000000188
 21
2.750000000000724
 31
0.0
  0
LINE
  5
5BE
330
1F
100
AcDbEntity
  8
AM_0
100
AcDbLine
 10
18.00000000000188
 20
2.750000000000724
 30
0.0
 11
23.00000000000188
 21
2.75000000000071
 31
0.0
  0
LINE
  5
5BF
330
1F
100
AcDbEntity
  8
AM_0
100
AcDbLine
 10
23.00000000000188
 20
3.500000000000711
 30
0.0
 11
26.00000000000188
 21
3.500000000000711
 31
0.0
  0
LINE
  5
5C0
330
1F
100
AcDbEntity
  8
AM_0
100
AcDbLine
 10
26.00000000000188
 20
12.50000000000072
 30
0.0
 11
26.00000000000185
 21
-12.49999999999929
 31
0.0
  0
LINE
  5
5C1
330
1F
100
AcDbEntity
  8
AM_0
100
AcDbLine
 10
20.8000000000019
 20
17.70000000000071
 30
0.0
 11
26.00000000000191
 21
12.50000000000075
 31
0.0
  0
LINE
  5
5C2
330
1F
100
AcDbEntity
  8
AM_0
100
AcDbLine
 10
15.74367378110292
 20
17.70000000000073
 30
0.0
 11
20.8000000000019
 21
17.70000000000071
 31
0.0
  0
LINE
  5
5C3
330
1F
100
AcDbEntity
  8
AM_0
100
AcDbLine
 10
10.04228494254089
 20
16.17231746497212
 30
0.0
 11
15.74367378110295
 21
17.70000000000062
 31
0.0
  0
LINE
  5
5C4
330
1F
100
AcDbEntity
  8
AM_0
100
AcDbLine
 10
6.224166186107883
 20
14.16776030312482
 30
0.0
 11
10.04228494254092
 21
16.17231746497209
 31
0.0
  0
LINE
  5
5C5
330
1F
100
AcDbEntity
  8
AM_0
100
AcDbLine
 10
0.0000000000018883
 20
12.50000000000075
 30
0.0
 11
6.224166186107856
 21
14.16776030312491
 31
0.0
  0
LINE
  5
5C6
330
1F
100
AcDbEntity
  8
AM_0
100
AcDbLine
 10
0.000000000001916
 20
9.800000000000738
 30
0.0
 11
-0.0000000000000379
 21
16.29999999766929
 31
0.0
  0
LINE
  5
5C7
330
1F
100
AcDbEntity
  8
AM_0
100
AcDbLine
 10
-0.1999999999981174
 20
9.800000000000738
 30
0.0
 11
0.0000000000018883
 21
9.800000000000738
 31
0.0
  0
LINE
  5
5C8
330
1F
100
AcDbEntity
  8
AM_0
100
AcDbLine
 10
-0.1999999999981174
 20
2.500000000000751
 30
0.0
 11
-0.1999999999981174
 21
9.800000000000738
 31
0.0
  0
LINE
  5
5C9
330
1F
100
AcDbEntity
  8
AM_0
100
AcDbLine
 10
0.0000000000018883
 20
2.500000000000751
 30
0.0
 11
-0.1999999999981174
 21
2.500000000000751
 31
0.0
  0
LINE
  5
5CA
330
1F
100
AcDbEntity
  8
AM_0
100
AcDbLine
 10
0.000000000001916
 20
2.000000000000737
 30
0.0
 11
0.000000000001916
 21
2.500000000000751
 31
0.0
  0
LINE
  5
5CB
330
1F
100
AcDbEntity
  8
AM_0
100
AcDbLine
 10
0.0000000000018883
 20
2.000000000000737
 30
0.0
 11
1.000000000001889
 21
2.000000000000737
 31
0.0
  0
LINE
  5
5CC
330
1F
100
AcDbEntity
  8
AM_0
100
AcDbLine
 10
1.000000000001889
 20
2.000000000000737
 30
0.0
 11
1.000000000001861
 21
-1.999999999999252
 31
0.0
  0
LINE
  5
5CD
330
1F
100
AcDbEntity
  8
AM_0
100
AcDbLine
 10
1.000000000001889
 20
1.60000000000074
 30
0.0
 11
6.500000000001894
 21
1.600000000000726
 31
0.0
  0
LINE
  5
5CE
330
1F
100
AcDbEntity
  8
AM_0
100
AcDbLine
 10
6.500000000001894
 20
1.600000000000726
 30
0.0
 11
6.500000000001866
 21
-1.599999999999269
 31
0.0
  0
LINE
  5
5CF
330
1F
100
AcDbEntity
  8
AM_0
100
AcDbLine
 10
6.500000000001866
 20
-1.599999999999269
 30
0.0
 11
1.000000000001861
 21
-1.599999999999255
 31
0.0
  0
LINE
  5
5D0
330
1F
100
AcDbEntity
  8
AM_0
100
AcDbLine
 10
1.000000000001861
 20
-1.999999999999252
 30
0.0
 11
0.0000000000018605
 21
-1.999999999999252
 31
0.0
  0
LINE
  5
5D1
330
1F
100
AcDbEntity
  8
AM_0
100
AcDbLine
 10
0.0000000000018605
 20
-2.499999999999253
 30
0.0
 11
0.0000000000018605
 21
-1.999999999999252
 31
0.0
  0
LINE
  5
5D2
330
1F
100
AcDbEntity
  8
AM_0
100
AcDbLine
 10
0.0000000000018605
 20
-2.499999999999253
 30
0.0
 11
-0.1999999999981452
 21
-2.499999999999253
 31
0.0
  0
LINE
  5
5D3
330
1F
100
AcDbEntity
  8
AM_0
100
AcDbLine
 10
-0.1999999999981452
 20
-2.499999999999253
 30
0.0
 11
-0.1999999999981452
 21
-9.799999999999255
 31
0.0
  0
LINE
  5
5D4
330
1F
100
AcDbEntity
  8
AM_0
100
AcDbLine
 10
-0.1999999999981452
 20
-9.799999999999255
 30
0.0
 11
0.0000000000018605
 21
-9.799999999999255
 31
0.0
  0
LINE
  5
5D5
330
1F
100
AcDbEntity
  8
AM_0
100
AcDbLine
 10
-0.0000000000000547
 20
-15.80844403854836
 30
0.0
 11
0.0000000000018605
 21
-9.799999999999255
 31
0.0
  0
LINE
  5
5D6
330
1F
100
AcDbEntity
  8
AM_0
100
AcDbLine
 10
6.224166186107856
 20
-14.16776030312328
 30
0.0
 11
0.000000000001916
 21
-12.49999999999907
 31
0.0
  0
LINE
  5
5D7
330
1F
100
AcDbEntity
  8
AM_0
100
AcDbLine
 10
10.04228494254087
 20
-16.17231746497028
 30
0.0
 11
6.224166186107911
 21
-14.16776030312314
 31
0.0
  0
LINE
  5
5D8
330
1F
100
AcDbEntity
  8
AM_0
100
AcDbLine
 10
15.74367378110289
 20
-17.69999999999927
 30
0.0
 11
10.04228494254075
 21
-16.17231746497074
 31
0.0
  0
LINE
  5
5D9
330
1F
100
AcDbEntity
  8
AM_0
100
AcDbLine
 10
20.80000000000187
 20
-17.69999999999929
 30
0.0
 11
15.74367378110289
 21
-17.69999999999929
 31
0.0
  0
LINE
  5
5DA
330
1F
100
AcDbEntity
  8
AM_0
100
AcDbLine
 10
26.00000000000185
 20
-12.49999999999929
 30
0.0
 11
20.80000000000187
 21
-17.69999999999929
 31
0.0
  0
LINE
  5
5DB
330
1F
100
AcDbEntity
  8
AM_0
100
AcDbLine
 10
-19.40000000000045
 20
14.79353221295458
 30
0.0
 11
-19.40000000000044
 21
-14.79353221295122
 31
0.0
  0
LINE
  5
5DC
330
1F
100
AcDbEntity
  8
AM_0
100
AcDbLine
 10
-19.40000000000045
 20
14.79353221295457
 30
0.0
 11
-31.40000761538744
 21
14.89825469290218
 31
0.0
  0
LINE
  5
5DD
330
1F
100
AcDbEntity
  8
AM_0
100
AcDbLine
 10
-31.40000761538744
 20
-14.89825469289882
 30
0.0
 11
-19.40000000000044
 21
-14.79353221295121
 31
0.0
  0
LINE
  5
5DE
330
1F
100
AcDbEntity
  8
AM_0
100
AcDbLine
 10
-31.60000000000043
 20
14.70000000000168
 30
0.0
 11
-31.60000000000043
 21
-14.69999999999832
 31
0.0
  0
LINE
  5
5DF
330
1F
100
AcDbEntity
  8
AM_0
100
AcDbLine
 10
-31.40000761538744
 20
14.89825469290218
 30
0.0
 11
-31.40000761538744
 21
-14.89825469289882
 31
0.0
  0
LINE
  5
5E0
330
1F
100
AcDbEntity
  8
AM_0
100
AcDbLine
 10
-31.60000000000043
 20
-14.69999999999873
 30
0.0
 11
-31.40000761538744
 21
-14.89825469289925
 31
0.0
  0
LINE
  5
5E1
330
1F
100
AcDbEntity
  8
AM_0
100
AcDbLine
 10
-31.40000761538744
 20
14.8982546929026
 30
0.0
 11
-31.60000000000043
 21
14.70000000000209
 31
0.0
  0
LWPOLYLINE
  5
5E2
330
1F
100
AcDbEntity
  8
AM_4
100
AcDbPolyline
 90
        9
 70
     0
 43
0.0
 10
-0.9912734645016732
 20
15.80844404062082
 10
-0.9851351053598704
 20
16.58873827398054
 10
-0.9805739109368882
 20
17.33904913560689
 10
-0.9777651484358966
 20
18.03054538656724
 10
-0.9768167465927153
 20
18.63665578199217
 10
-0.9777651484358922
 20
19.13409009042727
 10
-0.9805739109368817
 20
19.50373403786525
 10
-0.9851351053598598
 20
19.73138378758504
 10
-0.9912734645016457
 20
19.80829173287748
  0
LINE
  5
5E3
330
1F
100
AcDbEntity
  8
AM_0
100
AcDbLine
 10
-11.50000000000002
 20
19.90000000000204
 30
0.0
 11
-0.9912734645020342
 21
19.80829173287749
 31
0.0
  0
LINE
  5
5E4
330
1F
100
AcDbEntity
  8
AM_4
100
AcDbLine
 10
-0.0000000000000408
 20
15.80844403596722
 30
0.0
 11
-11.50000000000004
 21
15.90015230774533
 31
0.0
  0
LINE
  5
5E5
330
1F
100
AcDbEntity
  8
AM_9
100
AcDbLine
 10
-0.0000000000000486
 20
-1.999999999999252
 30
0.0
 11
-0.0000000000000468
 21
2.000000000000737
 31
0.0
  0
LINE
  5
5E6
330
1F
100
AcDbEntity
  8
AM_4
100
AcDbLine
 10
-0.9912734645020618
 20
-15.80844404061667
 30
0.0
 11
-0.9912734645020479
 21
15.80844404062082
 31
0.0
  0
LINE
  5
5E7
330
1F
100
AcDbEntity
  8
AM_0
100
AcDbLine
 10
-0.0000000000000655
 20
-15.80844403596307
 30
0.0
 11
-0.0186427238152661
 21
-15.80844403653922
 31
0.0
  0
LWPOLYLINE
  5
5E8
330
1F
100
AcDbEntity
  8
AM_4
100
AcDbPolyline
 90
        8
 70
     0
 43
0.0
 10
-0.9912734645016819
 20
-15.80844404061667
 10
-0.9851351053598879
 20
-16.58873827397643
 10
-0.9805739109369068
 20
-17.3390491356028
 10
-0.9777651484359183
 20
-18.03054538656316
 10
-0.9768167465927415
 20
-18.63665578198811
 10
-0.9777651484359194
 20
-19.13409009042323
 10
-0.9805739109369127
 20
-19.50373403786122
 10
-0.9851258819886269
 20
-19.73112096060665
  0
LINE
  5
5E9
330
1F
100
AcDbEntity
  8
AM_0
100
AcDbLine
 10
-11.50000000000003
 20
19.90000000000208
 30
0.0
 11
-11.50000000000006
 21
-19.89999999999792
 31
0.0
  0
LINE
  5
5EA
330
1F
100
AcDbEntity
  8
AM_0
100
AcDbLine
 10
-11.50000000000007
 20
-19.89999999999788
 30
0.0
 11
-0.9912734645020759
 21
-19.80829173287335
 31
0.0
  0
LINE
  5
5ED
330
1F
100
AcDbEntity
  8
AM_7
100
AcDbLine
 10
0.633782217352751
 20
-4.499999999999255
 30
0.0
 11
4.366217782650974
 21
-4.499999999999255
 31
0.0
  0
LINE
  5
5EE
330
1F
100
AcDbEntity
  8
AM_7
100
AcDbLine
 10
2.500000000001863
 20
-6.366217782648366
 30
0.0
 11
2.500000000001863
 21
-2.633782217350143
 31
0.0
  0
LINE
  5
5EF
330
1F
100
AcDbEntity
  8
AM_7
100
AcDbLine
 10
0.633782217352779
 20
4.50000000000074
 30
0.0
 11
4.366217782651002
 21
4.50000000000074
 31
0.0
  0
LINE
  5
5F0
330
1F
100
AcDbEntity
  8
AM_7
100
AcDbLine
 10
2.50000000000189
 20
2.633782217351628
 30
0.0
 11
2.50000000000189
 21
6.366217782649851
 31
0.0
  0
LINE
  5
5F1
330
1F
100
AcDbEntity
  8
AM_7
100
AcDbLine
 10
21.63378221735277
 20
8.500000000000716
 30
0.0
 11
25.36621778265099
 21
8.500000000000716
 31
0.0
  0
LINE
  5
5F2
330
1F
100
AcDbEntity
  8
AM_7
100
AcDbLine
 10
23.50000000000188
 20
6.633782217351604
 30
0.0
 11
23.50000000000188
 21
10.36621778264983
 31
0.0
  0
LINE
  5
5F3
330
1F
100
AcDbEntity
  8
AM_7
100
AcDbLine
 10
21.63378221735274
 20
-8.499999999999286
 30
0.0
 11
25.36621778265097
 21
-8.499999999999286
 31
0.0
  0
LINE
  5
5F4
330
1F
100
AcDbEntity
  8
AM_7
100
AcDbLine
 10
23.50000000000185
 20
-10.3662177826484
 30
0.0
 11
23.50000000000185
 21
-6.633782217350174
 31
0.0
  0
LINE
  5
5F5
330
1F
100
AcDbEntity
  8
AM_7
100
AcDbLine
 10
-63.45372080858236
 20
-6.999999999998398
 30
0.0
 11
-54.20372080858235
 21
-6.999999999998705
 31
0.0
  0
LINE
  5
5F6
330
1F
100
AcDbEntity
  8
AM_7
100
AcDbLine
 10
-56.82872080858235
 20
-9.624999999998701
 30
0.0
 11
-56.82872080858235
 21
-4.374999999998709
 31
0.0
  0
LINE
  5
5F7
330
1F
100
AcDbEntity
  8
AM_7
100
AcDbLine
 10
-63.45372080858237
 20
7.000000000002172
 30
0.0
 11
-54.20372080858235
 21
7.000000000002395
 31
0.0
  0
LINE
  5
5F8
330
1F
100
AcDbEntity
  8
AM_7
100
AcDbLine
 10
-56.82872080858235
 20
4.375000000002393
 30
0.0
 11
-56.82872080858235
 21
9.625000000002398
 31
0.0
  0
LINE
  5
5F9
330
1F
100
AcDbEntity
  8
AM_7
100
AcDbLine
 10
-60.82872080858235
 20
-9.624999999998403
 30
0.0
 11
-60.82872080858235
 21
-4.374999999998392
 31
0.0
  0
LINE
  5
5FA
330
1F
100
AcDbEntity
  8
AM_7
100
AcDbLine
 10
-60.82872080858236
 20
4.375000000002167
 30
0.0
 11
-60.82872080858236
 21
9.625000000002178
 31
0.0
  0
LINE
  5
5FB
330
1F
100
AcDbEntity
  8
AM_7
100
AcDbLine
 10
-55.45372080858246
 20
-8.749999999998945
 30
0.0
 11
-46.20372080858245
 21
-8.749999999999261
 31
0.0
  0
LINE
  5
5FC
330
1F
100
AcDbEntity
  8
AM_7
100
AcDbLine
 10
-48.82872080858245
 20
-11.37499999999926
 30
0.0
 11
-48.82872080858245
 21
-6.124999999999257
 31
0.0
  0
LINE
  5
5FD
330
1F
100
AcDbEntity
  8
AM_7
100
AcDbLine
 10
-55.45372080858246
 20
8.750000000002691
 30
0.0
 11
-46.20372080858246
 21
8.750000000002903
 31
0.0
  0
LINE
  5
5FE
330
1F
100
AcDbEntity
  8
AM_7
100
AcDbLine
 10
-48.82872080858246
 20
6.125000000002901
 30
0.0
 11
-48.82872080858246
 21
11.3750000000029
 31
0.0
  0
LINE
  5
5FF
330
1F
100
AcDbEntity
  8
AM_7
100
AcDbLine
 10
-52.82872080858245
 20
-11.37499999999895
 30
0.0
 11
-52.82872080858245
 21
-6.124999999998941
 31
0.0
  0
LINE
  5
600
330
1F
100
AcDbEntity
  8
AM_7
100
AcDbLine
 10
-52.82872080858245
 20
6.125000000002688
 30
0.0
 11
-52.82872080858245
 21
11.37500000000269
 31
0.0
  0
LINE
  5
601
330
1F
100
AcDbEntity
  8
AM_7
100
AcDbLine
 10
-47.45372080858256
 20
-10.49999999999944
 30
0.0
 11
-38.20372080858256
 21
-10.49999999999971
 31
0.0
  0
LINE
  5
602
330
1F
100
AcDbEntity
  8
AM_7
100
AcDbLine
 10
-40.82872080858256
 20
-13.12499999999971
 30
0.0
 11
-40.82872080858256
 21
-7.874999999999712
 31
0.0
  0
LINE
  5
603
330
1F
100
AcDbEntity
  8
AM_7
100
AcDbLine
 10
-47.45372080858256
 20
10.50000000000315
 30
0.0
 11
-38.20372080858256
 21
10.50000000000349
 31
0.0
  0
LINE
  5
604
330
1F
100
AcDbEntity
  8
AM_7
100
AcDbLine
 10
-40.82872080858256
 20
7.875000000003487
 30
0.0
 11
-40.82872080858256
 21
13.12500000000348
 31
0.0
  0
LINE
  5
605
330
1F
100
AcDbEntity
  8
AM_7
100
AcDbLine
 10
-44.82872080858256
 20
-13.12499999999944
 30
0.0
 11
-44.82872080858256
 21
-7.874999999999444
 31
0.0
  0
LINE
  5
606
330
1F
100
AcDbEntity
  8
AM_7
100
AcDbLine
 10
-44.82872080858255
 20
7.875000000003142
 30
0.0
 11
-44.82872080858255
 21
13.12500000000316
 31
0.0
  0
LINE
  5
607
330
1F
100
AcDbEntity
  8
AM_7
100
AcDbLine
 10
-39.45372080853245
 20
-12.24999999890486
 30
0.0
 11
-30.20372080849654
 21
-12.24999999896383
 31
0.0
  0
LINE
  5
608
330
1F
100
AcDbEntity
  8
AM_7
100
AcDbLine
 10
-32.82872080849654
 20
-14.87499999896382
 30
0.0
 11
-32.82872080849654
 21
-9.624999998963828
 31
0.0
  0
LINE
  5
609
330
1F
100
AcDbEntity
  8
AM_7
100
AcDbLine
 10
-39.45372080853247
 20
12.24999999890854
 30
0.0
 11
-30.20372080849656
 21
12.24999999896757
 31
0.0
  0
LINE
  5
60A
330
1F
100
AcDbEntity
  8
AM_7
100
AcDbLine
 10
-32.82872080849656
 20
9.624999998967574
 30
0.0
 11
-32.82872080849656
 21
14.87499999896757
 31
0.0
  0
LINE
  5
60B
330
1F
100
AcDbEntity
  8
AM_7
100
AcDbLine
 10
-36.82872080853245
 20
-14.87499999890486
 30
0.0
 11
-36.82872080853245
 21
-9.624999998904869
 31
0.0
  0
LINE
  5
60C
330
1F
100
AcDbEntity
  8
AM_7
100
AcDbLine
 10
-36.82872080853247
 20
9.624999998908542
 30
0.0
 11
-36.82872080853247
 21
14.87499999890854
 31
0.0
  0
ENDSEC
  0
SECTION
  2
OBJECTS
  0
DICTIONARY
  5
C
330
0
100
AcDbDictionary
281
     1
  3
ACAD_DETAILVIEWSTYLE
350
614
  3
ACAD_GROUP
350
D
  3
ACAD_LAYOUT
350
1A
  3
ACAD_MATERIAL
350
43
  3
ACAD_MLEADERSTYLE
350
5B
  3
ACAD_MLINESTYLE
350
17
  3
ACAD_PLOTSETTINGS
350
19
  3
ACAD_PLOTSTYLENAME
350
E
  3
ACAD_SCALELIST
350
47
  3
ACAD_SECTIONVIEWSTYLE
350
615
  3
ACAD_TABLESTYLE
350
59
  3
ACAD_VISUALSTYLE
350
2A
  3
ACDB_RECOMPOSE_DATA
350
611
  3
AcDbVariableDictionary
350
60D
  0
SUN
  5
5D
330
29
100
AcDbSun
 90
        1
290
     0
 63
     7
421
 16777215
 40
1.0
291
     1
 91
  2455826
 92
 54000000
292
     0
 70
     2
 71
   256
280
     1
  0
DICTIONARY
  5
614
102
{ACAD_REACTORS
330
C
102
}
330
C
100
AcDbDictionary
281
     1
  0
DICTIONARY
  5
D
102
{ACAD_REACTORS
330
C
102
}
330
C
100
AcDbDictionary
281
     1
  0
DICTIONARY
  5
1A
102
{ACAD_REACTORS
330
C
102
}
330
C
100
AcDbDictionary
281
     1
  3
Layout1
350
1E
  3
Layout2
350
26
  3
Model
350
22
  0
DICTIONARY
  5
43
102
{ACAD_REACTORS
330
C
102
}
330
C
100
AcDbDictionary
281
     1
  3
ByBlock
350
45
  3
ByLayer
350
44
  3
Global
350
46
  0
DICTIONARY
  5
5B
102
{ACAD_REACTORS
330
C
102
}
330
C
100
AcDbDictionary
281
     1
  3
Standard
350
5C
  0
DICTIONARY
  5
17
102
{ACAD_REACTORS
330
C
102
}
330
C
100
AcDbDictionary
281
     1
  3
Standard
350
18
  0
DICTIONARY
  5
19
102
{ACAD_REACTORS
330
C
102
}
330
C
100
AcDbDictionary
281
     1
  0
ACDBDICTIONARYWDFLT
  5
E
102
{ACAD_REACTORS
330
C
102
}
330
C
100
AcDbDictionary
281
     1
  3
Normal
350
F
100
AcDbDictionaryWithDefault
340
F
  0
DICTIONARY
  5
47
102
{ACAD_REACTORS
330
C
102
}
330
C
100
AcDbDictionary
281
     1
  3
A0
350
48
  3
A1
350
49
  3
A2
350
4A
  3
A3
350
4B
  3
A4
350
4C
  3
A5
350
4D
  3
A6
350
4E
  3
A7
350
4F
  3
A8
350
50
  3
A9
350
51
  3
B0
350
52
  3
B1
350
53
  3
B2
350
54
  3
B3
350
55
  3
B4
350
56
  3
B5
350
57
  3
B6
350
58
  0
DICTIONARY
  5
615
102
{ACAD_REACTORS
330
C
102
}
330
C
100
AcDbDictionary
281
     1
  0
DICTIONARY
  5
59
102
{ACAD_REACTORS
330
C
102
}
330
C
100
AcDbDictionary
281
     1
  3
Standard
350
5A
  0
DICTIONARY
  5
2A
102
{ACAD_REACTORS
330
C
102
}
330
C
100
AcDbDictionary
281
     1
  3
2dWireframe
350
2F
  3
Basic
350
32
  3
Brighten
350
36
  3
ColorChange
350
3A
  3
Conceptual
350
34
  3
Dim
350
35
  3
EdgeColorOff
350
3D
  3
Facepattern
350
39
  3
Flat
350
2B
  3
FlatWithEdges
350
2C
  3
Gouraud
350
2D
  3
GouraudWithEdges
350
2E
  3
Hidden
350
31
  3
JitterOff
350
3B
  3
Linepattern
350
38
  3
OverhangOff
350
3C
  3
Realistic
350
33
  3
Shaded
350
42
  3
Shaded with edges
350
41
  3
Shades of Gray
350
3E
  3
Sketchy
350
3F
  3
Thicken
350
37
  3
Wireframe
350
30
  3
X-Ray
350
40
  0
XRECORD
  5
611
102
{ACAD_REACTORS
330
C
102
}
330
C
100
AcDbXrecord
280
     1
 90
        1
330
5A
  0
DICTIONARY
  5
60D
102
{ACAD_REACTORS
330
C
102
}
330
C
100
AcDbDictionary
281
     1
  3
CANNOSCALE
350
60E
  3
CENTEREXE
350
616
  3
CENTERLTYPEFILE
350
617
  3
CMLEADERSTYLE
350
613
  3
CTABLESTYLE
350
612
  0
LAYOUT
  5
1E
102
{ACAD_REACTORS
330
1A
102
}
330
1A
100
AcDbPlotSettings
  1

  2
none_device
  4

  6

 40
0.0
 41
0.0
 42
0.0
 43
0.0
 44
0.0
 45
0.0
 46
0.0
 47
0.0
 48
0.0
 49
0.0
140
0.0
141
0.0
142
1.0
143
1.0
 70
   688
 72
     1
 73
     0
 74
     5
  7

 75
    16
 76
     0
 77
     2
 78
   300
147
1.0
148
0.0
149
0.0
100
AcDbLayout
  1
Layout1
 70
     1
 71
     1
 10
0.0
 20
0.0
 11
420.0
 21
297.0
 12
0.0
 22
0.0
 32
0.0
 14
1.000000000000000E+20
 24
1.000000000000000E+20
 34
1.000000000000000E+20
 15
-1.000000000000000E+20
 25
-1.000000000000000E+20
 35
-1.000000000000000E+20
146
0.0
 13
0.0
 23
0.0
 33
0.0
 16
1.0
 26
0.0
 36
0.0
 17
0.0
 27
1.0
 37
0.0
 76
     0
330
1B
  0
LAYOUT
  5
26
102
{ACAD_REACTORS
330
1A
102
}
330
1A
100
AcDbPlotSettings
  1

  2
none_device
  4

  6

 40
0.0
 41
0.0
 42
0.0
 43
0.0
 44
0.0
 45
0.0
 46
0.0
 47
0.0
 48
0.0
 49
0.0
140
0.0
141
0.0
142
1.0
143
1.0
 70
   688
 72
     1
 73
     0
 74
     5
  7

 75
    16
 76
     0
 77
     2
 78
   300
147
1.0
148
0.0
149
0.0
100
AcDbLayout
  1
Layout2
 70
     1
 71
     2
 10
0.0
 20
0.0
 11
0.0
 21
0.0
 12
0.0
 22
0.0
 32
0.0
 14
0.0
 24
0.0
 34
0.0
 15
0.0
 25
0.0
 35
0.0
146
0.0
 13
0.0
 23
0.0
 33
0.0
 16
1.0
 26
0.0
 36
0.0
 17
0.0
 27
1.0
 37
0.0
 76
     0
330
23
  0
LAYOUT
  5
22
102
{ACAD_REACTORS
330
1A
102
}
330
1A
100
AcDbPlotSettings
  1

  2
none_device
  4
Letter_(8.50_x_11.00_Inches)
  6

 40
6.35
 41
6.35
 42
6.35000508
 43
6.35000508
 44
215.9
 45
279.4
 46
0.0
 47
0.0
 48
0.0
 49
0.0
140
0.0
141
0.0
142
1.0
143
1.0
 70
  1712
 72
     1
 73
     0
 74
     0
  7

 75
     0
 76
     0
 77
     2
 78
   300
147
1.0
148
0.0
149
0.0
100
AcDbLayout
  1
Model
 70
     1
 71
     0
 10
0.0
 20
0.0
 11
420.0
 21
297.0
 12
0.0
 22
0.0
 32
0.0
 14
-90.92872080858172
 24
-19.89999999999792
 34
0.0
 15
34.92237288135784
 25
20.40542372881564
 35
0.0
146
0.0
 13
0.0
 23
0.0
 33
0.0
 16
1.0
 26
0.0
 36
0.0
 17
0.0
 27
1.0
 37
0.0
 76
     0
330
1F
331
29
  0
MATERIAL
  5
45
102
{ACAD_REACTORS
330
43
102
}
330
43
100
AcDbMaterial
  1
ByBlock
 72
     1
 94
      127
  0
MATERIAL
  5
44
102
{ACAD_REACTORS
330
43
102
}
330
43
100
AcDbMaterial
  1
ByLayer
 72
     1
 94
      127
  0
MATERIAL
  5
46
102
{ACAD_REACTORS
330
43
102
}
330
43
100
AcDbMaterial
  1
Global
 72
     1
 94
      127
  0
MLEADERSTYLE
  5
5C
102
{ACAD_REACTORS
330
5B
102
}
330
5B
100
AcDbMLeaderStyle
179
     2
170
     2
171
     1
172
     0
 90
        2
 40
0.0
 41
0.0
173
     1
 91
-1056964608
340
14
 92
       -2
290
     1
 42
2.0
291
     1
 43
8.0
  3
Standard
341
0
 44
4.0
300

342
11
174
     1
178
     6
175
     1
176
     0
 93
-1056964608
 45
4.0
292
     0
297
     0
 46
4.0
343
0
 94
-1056964608
 47
1.0
 49
1.0
140
1.0
293
     1
141
0.0
294
     1
177
     0
142
1.0
295
     0
296
     0
143
3.75
271
     0
272
     9
273
     9
298
     0
  0
MLINESTYLE
  5
18
102
{ACAD_REACTORS
330
17
102
}
330
17
100
AcDbMlineStyle
  2
Standard
 70
     0
  3

 62
   256
 51
90.0
 52
90.0
 71
     2
 49
0.5
 62
   256
  6
BYLAYER
 49
-0.5
 62
   256
  6
BYLAYER
  0
ACDBPLACEHOLDER
  5
F
102
{ACAD_REACTORS
330
E
102
}
330
E
  0
SCALE
  5
48
102
{ACAD_REACTORS
330
47
102
}
330
47
100
AcDbScale
 70
     0
300
1:1
140
1.0
141
1.0
290
     1
  0
SCALE
  5
49
102
{ACAD_REACTORS
330
47
102
}
330
47
100
AcDbScale
 70
     0
300
1:2
140
1.0
141
2.0
290
     0
  0
SCALE
  5
4A
102
{ACAD_REACTORS
330
47
102
}
330
47
100
AcDbScale
 70
     0
300
1:4
140
1.0
141
4.0
290
     0
  0
SCALE
  5
4B
102
{ACAD_REACTORS
330
47
102
}
330
47
100
AcDbScale
 70
     0
300
1:5
140
1.0
141
5.0
290
     0
  0
SCALE
  5
4C
102
{ACAD_REACTORS
330
47
102
}
330
47
100
AcDbScale
 70
     0
300
1:8
140
1.0
141
8.0
290
     0
  0
SCALE
  5
4D
102
{ACAD_REACTORS
330
47
102
}
330
47
100
AcDbScale
 70
     0
300
1:10
140
1.0
141
10.0
290
     0
  0
SCALE
  5
4E
102
{ACAD_REACTORS
330
47
102
}
330
47
100
AcDbScale
 70
     0
300
1:16
140
1.0
141
16.0
290
     0
  0
SCALE
  5
4F
102
{ACAD_REACTORS
330
47
102
}
330
47
100
AcDbScale
 70
     0
300
1:20
140
1.0
141
20.0
290
     0
  0
SCALE
  5
50
102
{ACAD_REACTORS
330
47
102
}
330
47
100
AcDbScale
 70
     0
300
1:30
140
1.0
141
30.0
290
     0
  0
SCALE
  5
51
102
{ACAD_REACTORS
330
47
102
}
330
47
100
AcDbScale
 70
     0
300
1:40
140
1.0
141
40.0
290
     0
  0
SCALE
  5
52
102
{ACAD_REACTORS
330
47
102
}
330
47
100
AcDbScale
 70
     0
300
1:50
140
1.0
141
50.0
290
     0
  0
SCALE
  5
53
102
{ACAD_REACTORS
330
47
102
}
330
47
100
AcDbScale
 70
     0
300
1:100
140
1.0
141
100.0
290
     0
  0
SCALE
  5
54
102
{ACAD_REACTORS
330
47
102
}
330
47
100
AcDbScale
 70
     0
300
2:1
140
2.0
141
1.0
290
     0
  0
SCALE
  5
55
102
{ACAD_REACTORS
330
47
102
}
330
47
100
AcDbScale
 70
     0
300
4:1
140
4.0
141
1.0
290
     0
  0
SCALE
  5
56
102
{ACAD_REACTORS
330
47
102
}
330
47
100
AcDbScale
 70
     0
300
8:1
140
8.0
141
1.0
290
     0
  0
SCALE
  5
57
102
{ACAD_REACTORS
330
47
102
}
330
47
100
AcDbScale
 70
     0
300
10:1
140
10.0
141
1.0
290
     0
  0
SCALE
  5
58
102
{ACAD_REACTORS
330
47
102
}
330
47
100
AcDbScale
 70
     0
300
100:1
140
100.0
141
1.0
290
     0
  0
TABLESTYLE
  5
5A
102
{ACAD_REACTORS
330
59
102
}
102
{ACAD_XDICTIONARY
360
60F
102
}
330
59
100
AcDbTableStyle
  3
Standard
 70
     0
 71
     0
 40
0.06
 41
0.06
280
     0
281
     0
  7
Standard
140
4.5
170
     2
 62
     0
 63
   257
283
     0
 90
        4
 91
        0
  1

274
    -2
284
     1
 64
     0
275
    -2
285
     1
 65
     0
276
    -2
286
     1
 66
     0
277
    -2
287
     1
 67
     0
278
    -2
288
     1
 68
     0
279
    -2
289
     1
 69
     0
  7
Standard
140
6.0
170
     5
 62
     0
 63
   257
283
     0
 90
        4
 91
        0
  1

274
    -2
284
     1
 64
     0
275
    -2
285
     1
 65
     0
276
    -2
286
     1
 66
     0
277
    -2
287
     1
 67
     0
278
    -2
288
     1
 68
     0
279
    -2
289
     1
 69
     0
  7
Standard
140
4.5
170
     5
 62
     0
 63
   257
283
     0
 90
        4
 91
        0
  1

274
    -2
284
     1
 64
     0
275
    -2
285
     1
 65
     0
276
    -2
286
     1
 66
     0
277
    -2
287
     1
 67
     0
278
    -2
288
     1
 68
     0
279
    -2
289
     1
 69
     0
  0
VISUALSTYLE
  5
2F
102
{ACAD_REACTORS
330
2A
102
}
330
2A
100
AcDbVisualStyle
  2
2dWireframe
 70
     4
177
     3
291
     0
 70
    58
 90
        0
176
     1
 90
        2
176
     1
 90
        0
176
     1
 90
        0
176
     1
 40
0.6
176
     1
 40
30.0
176
     1
 62
     7
420
 16777215
176
     1
 90
        1
176
     1
 90
        4
176
     1
 62
     7
176
     1
 62
   257
176
     1
 90
        1
176
     1
 90
        1
176
     1
 40
1.0
176
     1
 90
        0
176
     1
 62
   257
176
     1
 40
1.0
176
     1
 90
        1
176
     1
 90
        6
176
     1
 90
        2
176
     1
 62
     7
176
     1
 90
        5
176
     1
 90
        0
176
     1
 90
        0
176
     1
290
     0
176
     1
 90
        1
176
     1
 40
0.0
176
     1
 90
        0
176
     1
290
     1
176
     1
290
     1
176
     1
290
     0
176
     1
290
     0
176
     1
290
     0
176
     1
290
     0
176
     1
290
     0
176
     1
290
     0
176
     1
290
     0
176
     1
 90
       50
176
     1
 40
0.0
176
     1
 40
1.0
176
     1
 90
        0
176
     1
 62
    18
420
        0
176
     1
 90
       50
176
     1
 90
        3
176
     1
 62
     5
420
      255
176
     1
290
     0
176
     1
 90
       50
176
     1
 90
       50
176
     1
 90
       50
176
     1
290
     0
176
     1
 90
       50
176
     1
 62
   256
176
     0
 40
1.0
176
     0
 90
        2
176
     1
  1
strokes_ogs.tif
176
     1
290
     0
176
     1
 40
1.0
176
     1
 40
1.0
176
     1
  0
VISUALSTYLE
  5
32
102
{ACAD_REACTORS
330
2A
102
}
330
2A
100
AcDbVisualStyle
  2
Basic
 70
     7
177
     3
291
     1
 70
    58
 90
        1
176
     1
 90
        0
176
     1
 90
        1
176
     1
 90
        0
176
     1
 40
0.6
176
     1
 40
30.0
176
     1
 62
     7
420
 16777215
176
     1
 90
        0
176
     1
 90
        4
176
     1
 62
     7
176
     1
 62
   257
176
     1
 90
        1
176
     1
 90
        1
176
     1
 40
1.0
176
     1
 90
        8
176
     1
 62
     7
176
     1
 40
1.0
176
     1
 90
        1
176
     1
 90
        6
176
     1
 90
        2
176
     1
 62
     7
176
     1
 90
        5
176
     1
 90
        0
176
     1
 90
        0
176
     1
290
     0
176
     1
 90
        1
176
     1
 40
0.0
176
     1
 90
        0
176
     1
290
     0
176
     1
290
     1
176
     1
290
     1
176
     1
290
     0
176
     1
290
     0
176
     1
290
     0
176
     1
290
     0
176
     1
290
     0
176
     1
290
     0
176
     1
 90
       50
176
     1
 40
0.0
176
     1
 40
1.0
176
     1
 90
        0
176
     1
 62
    18
420
        0
176
     1
 90
       50
176
     1
 90
        3
176
     1
 62
     5
420
      255
176
     1
290
     0
176
     1
 90
       50
176
     1
 90
       50
176
     1
 90
       50
176
     1
290
     0
176
     1
 90
       50
176
     1
 62
   256
176
     0
 40
1.0
176
     0
 90
        2
176
     1
  1
strokes_ogs.tif
176
     1
290
     0
176
     1
 40
1.0
176
     1
 40
1.0
176
     1
  0
VISUALSTYLE
  5
36
102
{ACAD_REACTORS
330
2A
102
}
330
2A
100
AcDbVisualStyle
  2
Brighten
 70
    12
177
     3
291
     1
 70
    58
 90
        2
176
     1
 90
        2
176
     1
 90
        0
176
     1
 90
        0
176
     1
 40
0.6
176
     1
 40
30.0
176
     1
 62
     7
420
 16777215
176
     1
 90
        1
176
     1
 90
        4
176
     1
 62
     7
176
     1
 62
   257
176
     1
 90
        1
176
     1
 90
        1
176
     1
 40
1.0
176
     1
 90
        8
176
     1
 62
     7
176
     1
 40
1.0
176
     1
 90
        1
176
     1
 90
        6
176
     1
 90
        2
176
     1
 62
     7
176
     1
 90
        5
176
     1
 90
        0
176
     1
 90
        0
176
     1
290
     0
176
     1
 90
        1
176
     1
 40
50.0
176
     1
 90
        0
176
     1
290
     0
176
     1
290
     1
176
     1
290
     1
176
     1
290
     0
176
     1
290
     0
176
     1
290
     0
176
     1
290
     0
176
     1
290
     0
176
     1
290
     0
176
     1
 90
       50
176
     1
 40
0.0
176
     1
 40
1.0
176
     1
 90
        0
176
     1
 62
    18
420
        0
176
     1
 90
       50
176
     1
 90
        3
176
     1
 62
     5
420
      255
176
     1
290
     0
176
     1
 90
       50
176
     1
 90
       50
176
     1
 90
       50
176
     1
290
     0
176
     1
 90
       50
176
     1
 62
   256
176
     0
 40
1.0
176
     0
 90
        2
176
     1
  1
strokes_ogs.tif
176
     1
290
     0
176
     1
 40
1.0
176
     1
 40
1.0
176
     1
  0
VISUALSTYLE
  5
3A
102
{ACAD_REACTORS
330
2A
102
}
330
2A
100
AcDbVisualStyle
  2
ColorChange
 70
    16
177
     3
291
     1
 70
    58
 90
        2
176
     1
 90
        2
176
     1
 90
        3
176
     1
 90
        0
176
     1
 40
0.6
176
     1
 40
30.0
176
     1
 62
     8
420
  8421504
176
     1
 90
        1
176
     1
 90
        4
176
     1
 62
     7
176
     1
 62
   257
176
     1
 90
        1
176
     1
 90
        1
176
     1
 40
1.0
176
     1
 90
        8
176
     1
 62
     8
420
  8421504
176
     1
 40
1.0
176
     1
 90
        1
176
     1
 90
        6
176
     1
 90
        2
176
     1
 62
     7
176
     1
 90
        5
176
     1
 90
        0
176
     1
 90
        0
176
     1
290
     0
176
     1
 90
        1
176
     1
 40
0.0
176
     1
 90
        0
176
     1
290
     0
176
     1
290
     1
176
     1
290
     1
176
     1
290
     0
176
     1
290
     0
176
     1
290
     0
176
     1
290
     0
176
     1
290
     0
176
     1
290
     0
176
     1
 90
       50
176
     1
 40
0.0
176
     1
 40
1.0
176
     1
 90
        0
176
     1
 62
    18
420
        0
176
     1
 90
       50
176
     1
 90
        3
176
     1
 62
     5
420
      255
176
     1
290
     0
176
     1
 90
       50
176
     1
 90
       50
176
     1
 90
       50
176
     1
290
     0
176
     1
 90
       50
176
     1
 62
   256
176
     0
 40
1.0
176
     0
 90
        2
176
     1
  1
strokes_ogs.tif
176
     1
290
     0
176
     1
 40
1.0
176
     1
 40
1.0
176
     1
  0
VISUALSTYLE
  5
34
102
{ACAD_REACTORS
330
2A
102
}
330
2A
100
AcDbVisualStyle
  2
Conceptual
 70
     9
177
     3
291
     0
 70
    58
 90
        3
176
     1
 90
        2
176
     1
 90
        0
176
     1
 90
        0
176
     1
 40
0.6
176
     1
 40
30.0
176
     1
 62
     7
420
 16777215
176
     1
 90
        2
176
     1
 90
        2
176
     1
 62
     7
176
     1
 62
   257
176
     1
 90
        1
176
     1
 90
        1
176
     1
 40
179.0
176
     1
 90
        8
176
     1
 62
     7
176
     1
 40
1.0
176
     1
 90
        1
176
     1
 90
        6
176
     1
 90
        2
176
     1
 62
     7
176
     1
 90
        3
176
     1
 90
        0
176
     1
 90
        0
176
     1
290
     0
176
     1
 90
        1
176
     1
 40
0.0
176
     1
 90
        0
176
     1
290
     0
176
     1
290
     1
176
     1
290
     1
176
     1
290
     0
176
     1
290
     0
176
     1
290
     0
176
     1
290
     0
176
     1
290
     0
176
     1
290
     0
176
     1
 90
       50
176
     1
 40
0.0
176
     1
 40
1.0
176
     1
 90
        0
176
     1
 62
    18
420
        0
176
     1
 90
       50
176
     1
 90
        3
176
     1
 62
     5
420
      255
176
     1
290
     0
176
     1
 90
       50
176
     1
 90
       50
176
     1
 90
       50
176
     1
290
     0
176
     1
 90
       50
176
     1
 62
   256
176
     0
 40
1.0
176
     0
 90
        2
176
     1
  1
strokes_ogs.tif
176
     1
290
     0
176
     1
 40
1.0
176
     1
 40
1.0
176
     1
  0
VISUALSTYLE
  5
35
102
{ACAD_REACTORS
330
2A
102
}
330
2A
100
AcDbVisualStyle
  2
Dim
 70
    11
177
     3
291
     1
 70
    58
 90
        2
176
     1
 90
        2
176
     1
 90
        0
176
     1
 90
        0
176
     1
 40
0.6
176
     1
 40
30.0
176
     1
 62
     7
420
 16777215
176
     1
 90
        1
176
     1
 90
        4
176
     1
 62
     7
176
     1
 62
   257
176
     1
 90
        1
176
     1
 90
        1
176
     1
 40
1.0
176
     1
 90
        8
176
     1
 62
     7
176
     1
 40
1.0
176
     1
 90
        1
176
     1
 90
        6
176
     1
 90
        2
176
     1
 62
     7
176
     1
 90
        5
176
     1
 90
        0
176
     1
 90
        0
176
     1
290
     0
176
     1
 90
        1
176
     1
 40
-50.0
176
     1
 90
        0
176
     1
290
     0
176
     1
290
     1
176
     1
290
     1
176
     1
290
     0
176
     1
290
     0
176
     1
290
     0
176
     1
290
     0
176
     1
290
     0
176
     1
290
     0
176
     1
 90
       50
176
     1
 40
0.0
176
     1
 40
1.0
176
     1
 90
        0
176
     1
 62
    18
420
        0
176
     1
 90
       50
176
     1
 90
        3
176
     1
 62
     5
420
      255
176
     1
290
     0
176
     1
 90
       50
176
     1
 90
       50
176
     1
 90
       50
176
     1
290
     0
176
     1
 90
       50
176
     1
 62
   256
176
     0
 40
1.0
176
     0
 90
        2
176
     1
  1
strokes_ogs.tif
176
     1
290
     0
176
     1
 40
1.0
176
     1
 40
1.0
176
     1
  0
VISUALSTYLE
  5
3D
102
{ACAD_REACTORS
330
2A
102
}
330
2A
100
AcDbVisualStyle
  2
EdgeColorOff
 70
    22
177
     3
291
     1
 70
    58
 90
        2
176
     0
 90
        2
176
     0
 90
        0
176
     0
 90
        0
176
     0
 40
0.6
176
     0
 40
30.0
176
     0
 62
     7
420
 16777215
176
     0
 90
        1
176
     0
 90
        4
176
     0
 62
     7
176
     0
 62
   257
176
     0
 90
        1
176
     0
 90
        1
176
     0
 40
1.0
176
     0
 90
        8
176
     2
 62
     7
176
     0
 40
1.0
176
     0
 90
        1
176
     0
 90
        6
176
     0
 90
        2
176
     0
 62
     7
176
     0
 90
        5
176
     0
 90
        0
176
     0
 90
        0
176
     0
290
     0
176
     0
 90
        1
176
     0
 40
0.0
176
     0
 90
        0
176
     0
290
     0
176
     0
290
     1
176
     0
290
     1
176
     0
290
     0
176
     0
290
     0
176
     0
290
     0
176
     0
290
     0
176
     0
290
     0
176
     0
290
     0
176
     0
 90
       50
176
     0
 40
0.0
176
     0
 40
1.0
176
     0
 90
        0
176
     0
 62
    18
420
        0
176
     0
 90
       50
176
     0
 90
        3
176
     0
 62
     5
420
      255
176
     0
290
     0
176
     0
 90
       50
176
     0
 90
       50
176
     0
 90
       50
176
     0
290
     0
176
     0
 90
       50
176
     0
 62
   256
176
     0
 40
1.0
176
     0
 90
        2
176
     0
  1
strokes_ogs.tif
176
     0
290
     0
176
     0
 40
1.0
176
     0
 40
1.0
176
     0
  0
VISUALSTYLE
  5
39
102
{ACAD_REACTORS
330
2A
102
}
330
2A
100
AcDbVisualStyle
  2
Facepattern
 70
    15
177
     3
291
     1
 70
    58
 90
        2
176
     1
 90
        2
176
     1
 90
        0
176
     1
 90
        0
176
     1
 40
0.6
176
     1
 40
30.0
176
     1
 62
     7
420
 16777215
176
     1
 90
        1
176
     1
 90
        4
176
     1
 62
     7
176
     1
 62
   257
176
     1
 90
        1
176
     1
 90
        1
176
     1
 40
1.0
176
     1
 90
        8
176
     1
 62
     7
176
     1
 40
1.0
176
     1
 90
        1
176
     1
 90
        6
176
     1
 90
        2
176
     1
 62
     7
176
     1
 90
        5
176
     1
 90
        0
176
     1
 90
        0
176
     1
290
     0
176
     1
 90
        1
176
     1
 40
0.0
176
     1
 90
        0
176
     1
290
     0
176
     1
290
     1
176
     1
290
     1
176
     1
290
     0
176
     1
290
     0
176
     1
290
     0
176
     1
290
     0
176
     1
290
     0
176
     1
290
     0
176
     1
 90
       50
176
     1
 40
0.0
176
     1
 40
1.0
176
     1
 90
        0
176
     1
 62
    18
420
        0
176
     1
 90
       50
176
     1
 90
        3
176
     1
 62
     5
420
      255
176
     1
290
     0
176
     1
 90
       50
176
     1
 90
       50
176
     1
 90
       50
176
     1
290
     0
176
     1
 90
       50
176
     1
 62
   256
176
     0
 40
1.0
176
     0
 90
        2
176
     1
  1
strokes_ogs.tif
176
     1
290
     0
176
     1
 40
1.0
176
     1
 40
1.0
176
     1
  0
VISUALSTYLE
  5
2B
102
{ACAD_REACTORS
330
2A
102
}
330
2A
100
AcDbVisualStyle
  2
Flat
 70
     0
177
     3
291
     1
 70
    58
 90
        2
176
     1
 90
        1
176
     1
 90
        1
176
     1
 90
        2
176
     1
 40
0.6
176
     1
 40
30.0
176
     1
 62
     7
420
 16777215
176
     1
 90
        0
176
     1
 90
        0
176
     1
 62
     7
176
     1
 62
   257
176
     1
 90
        1
176
     1
 90
        1
176
     1
 40
1.0
176
     1
 90
        8
176
     1
 62
     7
176
     1
 40
1.0
176
     1
 90
        1
176
     1
 90
        6
176
     1
 90
        2
176
     1
 62
     7
176
     1
 90
        5
176
     1
 90
        0
176
     1
 90
        0
176
     1
290
     0
176
     1
 90
       13
176
     1
 40
0.0
176
     1
 90
        0
176
     1
290
     0
176
     1
290
     1
176
     1
290
     1
176
     1
290
     0
176
     1
290
     0
176
     1
290
     0
176
     1
290
     0
176
     1
290
     0
176
     1
290
     0
176
     1
 90
       50
176
     1
 40
0.0
176
     1
 40
1.0
176
     1
 90
        0
176
     1
 62
    18
420
        0
176
     1
 90
       50
176
     1
 90
        3
176
     1
 62
     5
420
      255
176
     1
290
     0
176
     1
 90
       50
176
     1
 90
       50
176
     1
 90
       50
176
     1
290
     0
176
     1
 90
       50
176
     1
 62
   256
176
     0
 40
1.0
176
     0
 90
        2
176
     1
  1
strokes_ogs.tif
176
     1
290
     0
176
     1
 40
1.0
176
     1
 40
1.0
176
     1
  0
VISUALSTYLE
  5
2C
102
{ACAD_REACTORS
330
2A
102
}
330
2A
100
AcDbVisualStyle
  2
FlatWithEdges
 70
     1
177
     3
291
     1
 70
    58
 90
        2
176
     1
 90
        1
176
     1
 90
        1
176
     1
 90
        2
176
     1
 40
0.6
176
     1
 40
30.0
176
     1
 62
     7
420
 16777215
176
     1
 90
        1
176
     1
 90
        0
176
     1
 62
     7
176
     1
 62
   257
176
     1
 90
        1
176
     1
 90
        1
176
     1
 40
1.0
176
     1
 90
        0
176
     1
 62
   257
176
     1
 40
1.0
176
     1
 90
        1
176
     1
 90
        6
176
     1
 90
        2
176
     1
 62
     7
176
     1
 90
        5
176
     1
 90
        0
176
     1
 90
        0
176
     1
290
     0
176
     1
 90
       13
176
     1
 40
0.0
176
     1
 90
        0
176
     1
290
     0
176
     1
290
     1
176
     1
290
     1
176
     1
290
     0
176
     1
290
     0
176
     1
290
     0
176
     1
290
     0
176
     1
290
     0
176
     1
290
     0
176
     1
 90
       50
176
     1
 40
0.0
176
     1
 40
1.0
176
     1
 90
        0
176
     1
 62
    18
420
        0
176
     1
 90
       50
176
     1
 90
        3
176
     1
 62
     5
420
      255
176
     1
290
     0
176
     1
 90
       50
176
     1
 90
       50
176
     1
 90
       50
176
     1
290
     0
176
     1
 90
       50
176
     1
 62
   256
176
     0
 40
1.0
176
     0
 90
        2
176
     1
  1
strokes_ogs.tif
176
     1
290
     0
176
     1
 40
1.0
176
     1
 40
1.0
176
     1
  0
VISUALSTYLE
  5
2D
102
{ACAD_REACTORS
330
2A
102
}
330
2A
100
AcDbVisualStyle
  2
Gouraud
 70
     2
177
     3
291
     1
 70
    58
 90
        2
176
     1
 90
        2
176
     1
 90
        1
176
     1
 90
        2
176
     1
 40
0.6
176
     1
 40
30.0
176
     1
 62
     7
420
 16777215
176
     1
 90
        0
176
     1
 90
        0
176
     1
 62
     7
176
     1
 62
   257
176
     1
 90
        1
176
     1
 90
        1
176
     1
 40
1.0
176
     1
 90
        0
176
     1
 62
     7
176
     1
 40
1.0
176
     1
 90
        1
176
     1
 90
        6
176
     1
 90
        2
176
     1
 62
     7
176
     1
 90
        5
176
     1
 90
        0
176
     1
 90
        0
176
     1
290
     0
176
     1
 90
       13
176
     1
 40
0.0
176
     1
 90
        0
176
     1
290
     0
176
     1
290
     1
176
     1
290
     1
176
     1
290
     0
176
     1
290
     0
176
     1
290
     0
176
     1
290
     0
176
     1
290
     0
176
     1
290
     0
176
     1
 90
       50
176
     1
 40
0.0
176
     1
 40
1.0
176
     1
 90
        0
176
     1
 62
    18
420
        0
176
     1
 90
       50
176
     1
 90
        3
176
     1
 62
     5
420
      255
176
     1
290
     0
176
     1
 90
       50
176
     1
 90
       50
176
     1
 90
       50
176
     1
290
     0
176
     1
 90
       50
176
     1
 62
   256
176
     0
 40
1.0
176
     0
 90
        2
176
     1
  1
strokes_ogs.tif
176
     1
290
     0
176
     1
 40
1.0
176
     1
 40
1.0
176
     1
  0
VISUALSTYLE
  5
2E
102
{ACAD_REACTORS
330
2A
102
}
330
2A
100
AcDbVisualStyle
  2
GouraudWithEdges
 70
     3
177
     3
291
     1
 70
    58
 90
        2
176
     1
 90
        2
176
     1
 90
        1
176
     1
 90
        2
176
     1
 40
0.6
176
     1
 40
30.0
176
     1
 62
     7
420
 16777215
176
     1
 90
        1
176
     1
 90
        0
176
     1
 62
     7
176
     1
 62
   257
176
     1
 90
        1
176
     1
 90
        1
176
     1
 40
1.0
176
     1
 90
        0
176
     1
 62
   257
176
     1
 40
1.0
176
     1
 90
        1
176
     1
 90
        6
176
     1
 90
        2
176
     1
 62
     7
176
     1
 90
        5
176
     1
 90
        0
176
     1
 90
        0
176
     1
290
     0
176
     1
 90
       13
176
     1
 40
0.0
176
     1
 90
        0
176
     1
290
     0
176
     1
290
     1
176
     1
290
     1
176
     1
290
     0
176
     1
290
     0
176
     1
290
     0
176
     1
290
     0
176
     1
290
     0
176
     1
290
     0
176
     1
 90
       50
176
     1
 40
0.0
176
     1
 40
1.0
176
     1
 90
        0
176
     1
 62
    18
420
        0
176
     1
 90
       50
176
     1
 90
        3
176
     1
 62
     5
420
      255
176
     1
290
     0
176
     1
 90
       50
176
     1
 90
       50
176
     1
 90
       50
176
     1
290
     0
176
     1
 90
       50
176
     1
 62
   256
176
     0
 40
1.0
176
     0
 90
        2
176
     1
  1
strokes_ogs.tif
176
     1
290
     0
176
     1
 40
1.0
176
     1
 40
1.0
176
     1
  0
VISUALSTYLE
  5
31
102
{ACAD_REACTORS
330
2A
102
}
330
2A
100
AcDbVisualStyle
  2
Hidden
 70
     6
177
     3
291
     0
 70
    58
 90
        1
176
     1
 90
        2
176
     1
 90
        2
176
     1
 90
        0
176
     1
 40
0.6
176
     1
 40
30.0
176
     1
 62
     7
420
 16777215
176
     1
 90
        2
176
     1
 90
        2
176
     1
 62
     7
176
     1
 62
   257
176
     1
 90
        2
176
     1
 90
        1
176
     1
 40
40.0
176
     1
 90
        0
176
     1
 62
   257
176
     1
 40
1.0
176
     1
 90
        1
176
     1
 90
        6
176
     1
 90
        2
176
     1
 62
     7
176
     1
 90
        3
176
     1
 90
        0
176
     1
 90
        0
176
     1
290
     0
176
     1
 90
        1
176
     1
 40
0.0
176
     1
 90
        0
176
     1
290
     0
176
     1
290
     1
176
     1
290
     1
176
     1
290
     0
176
     1
290
     0
176
     1
290
     0
176
     1
290
     0
176
     1
290
     0
176
     1
290
     0
176
     1
 90
       50
176
     1
 40
0.0
176
     1
 40
1.0
176
     1
 90
        0
176
     1
 62
    18
420
        0
176
     1
 90
       50
176
     1
 90
        3
176
     1
 62
     5
420
      255
176
     1
290
     0
176
     1
 90
       50
176
     1
 90
       50
176
     1
 90
       50
176
     1
290
     0
176
     1
 90
       50
176
     1
 62
   256
176
     0
 40
1.0
176
     0
 90
        2
176
     1
  1
strokes_ogs.tif
176
     1
290
     0
176
     1
 40
1.0
176
     1
 40
1.0
176
     1
  0
VISUALSTYLE
  5
3B
102
{ACAD_REACTORS
330
2A
102
}
330
2A
100
AcDbVisualStyle
  2
JitterOff
 70
    20
177
     3
291
     1
 70
    58
 90
        2
176
     0
 90
        2
176
     0
 90
        0
176
     0
 90
        0
176
     0
 40
0.6
176
     0
 40
30.0
176
     0
 62
     7
420
 16777215
176
     0
 90
        1
176
     0
 90
        4
176
     0
 62
     7
176
     0
 62
   257
176
     0
 90
        1
176
     0
 90
        1
176
     0
 40
1.0
176
     0
 90
       10
176
     2
 62
     7
176
     0
 40
1.0
176
     0
 90
        1
176
     0
 90
        6
176
     0
 90
        2
176
     0
 62
     7
176
     0
 90
        5
176
     0
 90
        0
176
     0
 90
        0
176
     0
290
     0
176
     0
 90
        1
176
     0
 40
0.0
176
     0
 90
        0
176
     0
290
     0
176
     0
290
     1
176
     0
290
     1
176
     0
290
     0
176
     0
290
     0
176
     0
290
     0
176
     0
290
     0
176
     0
290
     0
176
     0
290
     0
176
     0
 90
       50
176
     0
 40
0.0
176
     0
 40
1.0
176
     0
 90
        0
176
     0
 62
    18
420
        0
176
     0
 90
       50
176
     0
 90
        3
176
     0
 62
     5
420
      255
176
     0
290
     0
176
     0
 90
       50
176
     0
 90
       50
176
     0
 90
       50
176
     0
290
     0
176
     0
 90
       50
176
     0
 62
   256
176
     0
 40
1.0
176
     0
 90
        2
176
     0
  1
strokes_ogs.tif
176
     0
290
     0
176
     0
 40
1.0
176
     0
 40
1.0
176
     0
  0
VISUALSTYLE
  5
38
102
{ACAD_REACTORS
330
2A
102
}
330
2A
100
AcDbVisualStyle
  2
Linepattern
 70
    14
177
     3
291
     1
 70
    58
 90
        2
176
     1
 90
        2
176
     1
 90
        0
176
     1
 90
        0
176
     1
 40
0.6
176
     1
 40
30.0
176
     1
 62
     7
420
 16777215
176
     1
 90
        1
176
     1
 90
        4
176
     1
 62
     7
176
     1
 62
   257
176
     1
 90
        7
176
     1
 90
        7
176
     1
 40
1.0
176
     1
 90
        8
176
     1
 62
     7
176
     1
 40
1.0
176
     1
 90
        1
176
     1
 90
        6
176
     1
 90
        2
176
     1
 62
     7
176
     1
 90
        5
176
     1
 90
        0
176
     1
 90
        0
176
     1
290
     0
176
     1
 90
        1
176
     1
 40
0.0
176
     1
 90
        0
176
     1
290
     0
176
     1
290
     1
176
     1
290
     1
176
     1
290
     0
176
     1
290
     0
176
     1
290
     0
176
     1
290
     0
176
     1
290
     0
176
     1
290
     0
176
     1
 90
       50
176
     1
 40
0.0
176
     1
 40
1.0
176
     1
 90
        0
176
     1
 62
    18
420
        0
176
     1
 90
       50
176
     1
 90
        3
176
     1
 62
     5
420
      255
176
     1
290
     0
176
     1
 90
       50
176
     1
 90
       50
176
     1
 90
       50
176
     1
290
     0
176
     1
 90
       50
176
     1
 62
   256
176
     0
 40
1.0
176
     0
 90
        2
176
     1
  1
strokes_ogs.tif
176
     1
290
     0
176
     1
 40
1.0
176
     1
 40
1.0
176
     1
  0
VISUALSTYLE
  5
3C
102
{ACAD_REACTORS
330
2A
102
}
330
2A
100
AcDbVisualStyle
  2
OverhangOff
 70
    21
177
     3
291
     1
 70
    58
 90
        2
176
     0
 90
        2
176
     0
 90
        0
176
     0
 90
        0
176
     0
 40
0.6
176
     0
 40
30.0
176
     0
 62
     7
420
 16777215
176
     0
 90
        1
176
     0
 90
        4
176
     0
 62
     7
176
     0
 62
   257
176
     0
 90
        1
176
     0
 90
        1
176
     0
 40
1.0
176
     0
 90
        9
176
     2
 62
     7
176
     0
 40
1.0
176
     0
 90
        1
176
     0
 90
        6
176
     0
 90
        2
176
     0
 62
     7
176
     0
 90
        5
176
     0
 90
        0
176
     0
 90
        0
176
     0
290
     0
176
     0
 90
        1
176
     0
 40
0.0
176
     0
 90
        0
176
     0
290
     0
176
     0
290
     1
176
     0
290
     1
176
     0
290
     0
176
     0
290
     0
176
     0
290
     0
176
     0
290
     0
176
     0
290
     0
176
     0
290
     0
176
     0
 90
       50
176
     0
 40
0.0
176
     0
 40
1.0
176
     0
 90
        0
176
     0
 62
    18
420
        0
176
     0
 90
       50
176
     0
 90
        3
176
     0
 62
     5
420
      255
176
     0
290
     0
176
     0
 90
       50
176
     0
 90
       50
176
     0
 90
       50
176
     0
290
     0
176
     0
 90
       50
176
     0
 62
   256
176
     0
 40
1.0
176
     0
 90
        2
176
     0
  1
strokes_ogs.tif
176
     0
290
     0
176
     0
 40
1.0
176
     0
 40
1.0
176
     0
  0
VISUALSTYLE
  5
33
102
{ACAD_REACTORS
330
2A
102
}
330
2A
100
AcDbVisualStyle
  2
Realistic
 70
     8
177
     3
291
     0
 70
    58
 90
        2
176
     1
 90
        3
176
     1
 90
        0
176
     1
 90
        2
176
     1
 40
0.6
176
     1
 40
30.0
176
     1
 62
     7
420
 16777215
176
     1
 90
        0
176
     1
 90
        0
176
     1
 62
     7
176
     1
 62
   257
176
     1
 90
        1
176
     1
 90
        1
176
     1
 40
1.0
176
     1
 90
        8
176
     1
 62
   257
176
     1
 40
1.0
176
     1
 90
        1
176
     1
 90
        6
176
     1
 90
        2
176
     1
 62
     7
176
     1
 90
        3
176
     1
 90
        0
176
     1
 90
        0
176
     1
290
     0
176
     1
 90
       13
176
     1
 40
0.0
176
     1
 90
        0
176
     1
290
     0
176
     1
290
     1
176
     1
290
     1
176
     1
290
     0
176
     1
290
     0
176
     1
290
     0
176
     1
290
     0
176
     1
290
     0
176
     1
290
     0
176
     1
 90
       50
176
     1
 40
0.0
176
     1
 40
1.0
176
     1
 90
        0
176
     1
 62
    18
420
        0
176
     1
 90
       50
176
     1
 90
        3
176
     1
 62
     5
420
      255
176
     1
290
     0
176
     1
 90
       50
176
     1
 90
       50
176
     1
 90
       50
176
     1
290
     0
176
     1
 90
       50
176
     1
 62
   256
176
     0
 40
1.0
176
     0
 90
        2
176
     1
  1
strokes_ogs.tif
176
     1
290
     0
176
     1
 40
1.0
176
     1
 40
1.0
176
     1
  0
VISUALSTYLE
  5
42
102
{ACAD_REACTORS
330
2A
102
}
330
2A
100
AcDbVisualStyle
  2
Shaded
 70
    27
177
     3
291
     0
 70
    58
 90
        2
176
     1
 90
        2
176
     1
 90
        1
176
     1
 90
        2
176
     1
 40
0.6
176
     1
 40
30.0
176
     1
 62
     7
420
 16777215
176
     1
 90
        0
176
     1
 90
        4
176
     1
 62
     7
176
     1
 62
   257
176
     1
 90
        1
176
     1
 90
        1
176
     1
 40
1.0
176
     1
 90
        8
176
     1
 62
   257
176
     1
 40
1.0
176
     1
 90
        1
176
     1
 90
        6
176
     1
 90
        2
176
     1
 62
     8
420
  7895160
176
     1
 90
        3
176
     1
 90
        0
176
     1
 90
        0
176
     1
290
     0
176
     1
 90
        5
176
     1
 40
0.0
176
     1
 90
        0
176
     1
290
     0
176
     1
290
     1
176
     1
290
     1
176
     1
290
     0
176
     1
290
     0
176
     1
290
     0
176
     1
290
     0
176
     1
290
     0
176
     1
290
     0
176
     1
 90
       50
176
     1
 40
0.0
176
     1
 40
1.0
176
     1
 90
        0
176
     1
 62
    18
420
        0
176
     1
 90
       50
176
     1
 90
        3
176
     1
 62
     5
420
      255
176
     1
290
     0
176
     1
 90
       50
176
     1
 90
       50
176
     1
 90
       50
176
     1
290
     0
176
     1
 90
       50
176
     1
 62
   256
176
     0
 40
1.0
176
     0
 90
        2
176
     1
  1
strokes_ogs.tif
176
     1
290
     0
176
     1
 40
1.0
176
     1
 40
1.0
176
     1
  0
VISUALSTYLE
  5
41
102
{ACAD_REACTORS
330
2A
102
}
330
2A
100
AcDbVisualStyle
  2
Shaded with edges
 70
    26
177
     3
291
     0
 70
    58
 90
        2
176
     1
 90
        2
176
     1
 90
        1
176
     1
 90
        2
176
     1
 40
0.6
176
     1
 40
30.0
176
     1
 62
     7
420
 16777215
176
     1
 90
        1
176
     1
 90
       10
176
     1
 62
     7
176
     1
 62
   257
176
     1
 90
        2
176
     1
 90
        1
176
     1
 40
1.0
176
     1
 90
        8
176
     1
 62
   257
176
     1
 40
1.0
176
     1
 90
        1
176
     1
 90
        6
176
     1
 90
        2
176
     1
 62
     7
176
     1
 90
        3
176
     1
 90
        0
176
     1
 90
        0
176
     1
290
     0
176
     1
 90
        5
176
     1
 40
0.0
176
     1
 90
        0
176
     1
290
     0
176
     1
290
     1
176
     1
290
     1
176
     1
290
     0
176
     1
290
     0
176
     1
290
     0
176
     1
290
     0
176
     1
290
     0
176
     1
290
     0
176
     1
 90
       50
176
     1
 40
0.0
176
     1
 40
1.0
176
     1
 90
        0
176
     1
 62
    18
420
        0
176
     1
 90
       50
176
     1
 90
        3
176
     1
 62
     5
420
      255
176
     1
290
     0
176
     1
 90
       50
176
     1
 90
       50
176
     1
 90
       50
176
     1
290
     0
176
     1
 90
       50
176
     1
 62
   256
176
     0
 40
1.0
176
     0
 90
        2
176
     1
  1
strokes_ogs.tif
176
     1
290
     0
176
     1
 40
1.0
176
     1
 40
1.0
176
     1
  0
VISUALSTYLE
  5
3E
102
{ACAD_REACTORS
330
2A
102
}
330
2A
100
AcDbVisualStyle
  2
Shades of Gray
 70
    23
177
     3
291
     0
 70
    58
 90
        2
176
     1
 90
        2
176
     1
 90
        3
176
     1
 90
        0
176
     1
 40
0.6
176
     1
 40
30.0
176
     1
 62
     7
420
 16777215
176
     1
 90
        2
176
     1
 90
        2
176
     1
 62
     7
176
     1
 62
     7
176
     1
 90
        1
176
     1
 90
        1
176
     1
 40
40.0
176
     1
 90
        8
176
     1
 62
     7
176
     1
 40
1.0
176
     1
 90
        1
176
     1
 90
        6
176
     1
 90
        2
176
     1
 62
     7
176
     1
 90
        3
176
     1
 90
        0
176
     1
 90
        0
176
     1
290
     0
176
     1
 90
        1
176
     1
 40
0.0
176
     1
 90
        0
176
     1
290
     0
176
     1
290
     1
176
     1
290
     1
176
     1
290
     0
176
     1
290
     0
176
     1
290
     0
176
     1
290
     0
176
     1
290
     0
176
     1
290
     0
176
     1
 90
       50
176
     1
 40
0.0
176
     1
 40
1.0
176
     1
 90
        0
176
     1
 62
    18
420
        0
176
     1
 90
       50
176
     1
 90
        3
176
     1
 62
     5
420
      255
176
     1
290
     0
176
     1
 90
       50
176
     1
 90
       50
176
     1
 90
       50
176
     1
290
     0
176
     1
 90
       50
176
     1
 62
   256
176
     0
 40
1.0
176
     0
 90
        2
176
     1
  1
strokes_ogs.tif
176
     1
290
     0
176
     1
 40
1.0
176
     1
 40
1.0
176
     1
  0
VISUALSTYLE
  5
3F
102
{ACAD_REACTORS
330
2A
102
}
330
2A
100
AcDbVisualStyle
  2
Sketchy
 70
    24
177
     3
291
     0
 70
    58
 90
        1
176
     1
 90
        2
176
     1
 90
        2
176
     1
 90
        0
176
     1
 40
0.6
176
     1
 40
30.0
176
     1
 62
     7
420
 16777215
176
     1
 90
        2
176
     1
 90
        2
176
     1
 62
     7
176
     1
 62
     7
176
     1
 90
        1
176
     1
 90
        1
176
     1
 40
40.0
176
     1
 90
       11
176
     1
 62
     7
176
     1
 40
1.0
176
     1
 90
        1
176
     1
 90
        6
176
     1
 90
        2
176
     1
 62
     7
176
     1
 90
        6
176
     1
 90
        0
176
     1
 90
        0
176
     1
290
     0
176
     1
 90
        1
176
     1
 40
0.0
176
     1
 90
        0
176
     1
290
     0
176
     1
290
     1
176
     1
290
     1
176
     1
290
     0
176
     1
290
     0
176
     1
290
     0
176
     1
290
     0
176
     1
290
     0
176
     1
290
     0
176
     1
 90
       50
176
     1
 40
0.0
176
     1
 40
1.0
176
     1
 90
        0
176
     1
 62
    18
420
        0
176
     1
 90
       50
176
     1
 90
        3
176
     1
 62
     5
420
      255
176
     1
290
     0
176
     1
 90
       50
176
     1
 90
       50
176
     1
 90
       50
176
     1
290
     0
176
     1
 90
       50
176
     1
 62
   256
176
     0
 40
1.0
176
     0
 90
        2
176
     1
  1
strokes_ogs.tif
176
     1
290
     0
176
     1
 40
1.0
176
     1
 40
1.0
176
     1
  0
VISUALSTYLE
  5
37
102
{ACAD_REACTORS
330
2A
102
}
330
2A
100
AcDbVisualStyle
  2
Thicken
 70
    13
177
     3
291
     1
 70
    58
 90
        2
176
     1
 90
        2
176
     1
 90
        0
176
     1
 90
        0
176
     1
 40
0.6
176
     1
 40
30.0
176
     1
 62
     7
420
 16777215
176
     1
 90
        1
176
     1
 90
        4
176
     1
 62
     7
176
     1
 62
   257
176
     1
 90
        1
176
     1
 90
        1
176
     1
 40
1.0
176
     1
 90
       12
176
     1
 62
     7
176
     1
 40
1.0
176
     1
 90
        1
176
     1
 90
        6
176
     1
 90
        2
176
     1
 62
     7
176
     1
 90
        5
176
     1
 90
        0
176
     1
 90
        0
176
     1
290
     0
176
     1
 90
        1
176
     1
 40
0.0
176
     1
 90
        0
176
     1
290
     0
176
     1
290
     1
176
     1
290
     1
176
     1
290
     0
176
     1
290
     0
176
     1
290
     0
176
     1
290
     0
176
     1
290
     0
176
     1
290
     0
176
     1
 90
       50
176
     1
 40
0.0
176
     1
 40
1.0
176
     1
 90
        0
176
     1
 62
    18
420
        0
176
     1
 90
       50
176
     1
 90
        3
176
     1
 62
     5
420
      255
176
     1
290
     0
176
     1
 90
       50
176
     1
 90
       50
176
     1
 90
       50
176
     1
290
     0
176
     1
 90
       50
176
     1
 62
   256
176
     0
 40
1.0
176
     0
 90
        2
176
     1
  1
strokes_ogs.tif
176
     1
290
     0
176
     1
 40
1.0
176
     1
 40
1.0
176
     1
  0
VISUALSTYLE
  5
30
102
{ACAD_REACTORS
330
2A
102
}
330
2A
100
AcDbVisualStyle
  2
Wireframe
 70
     5
177
     3
291
     0
 70
    58
 90
        0
176
     1
 90
        2
176
     1
 90
        0
176
     1
 90
        0
176
     1
 40
0.6
176
     1
 40
30.0
176
     1
 62
     7
420
 16777215
176
     1
 90
        1
176
     1
 90
        4
176
     1
 62
     7
176
     1
 62
   257
176
     1
 90
        1
176
     1
 90
        1
176
     1
 40
1.0
176
     1
 90
        0
176
     1
 62
   257
176
     1
 40
1.0
176
     1
 90
        1
176
     1
 90
        6
176
     1
 90
        2
176
     1
 62
     7
176
     1
 90
        3
176
     1
 90
        0
176
     1
 90
        0
176
     1
290
     0
176
     1
 90
        1
176
     1
 40
0.0
176
     1
 90
        0
176
     1
290
     0
176
     1
290
     1
176
     1
290
     1
176
     1
290
     0
176
     1
290
     0
176
     1
290
     0
176
     1
290
     0
176
     1
290
     0
176
     1
290
     0
176
     1
 90
       50
176
     1
 40
0.0
176
     1
 40
1.0
176
     1
 90
        0
176
     1
 62
    18
420
        0
176
     1
 90
       50
176
     1
 90
        3
176
     1
 62
     5
420
      255
176
     1
290
     0
176
     1
 90
       50
176
     1
 90
       50
176
     1
 90
       50
176
     1
290
     0
176
     1
 90
       50
176
     1
 62
   256
176
     0
 40
1.0
176
     0
 90
        2
176
     1
  1
strokes_ogs.tif
176
     1
290
     0
176
     1
 40
1.0
176
     1
 40
1.0
176
     1
  0
VISUALSTYLE
  5
40
102
{ACAD_REACTORS
330
2A
102
}
330
2A
100
AcDbVisualStyle
  2
X-Ray
 70
    25
177
     3
291
     0
 70
    58
 90
        2
176
     1
 90
        2
176
     1
 90
        1
176
     1
 90
        1
176
     1
 40
0.5
176
     1
 40
30.0
176
     1
 62
     7
420
 16777215
176
     1
 90
        1
176
     1
 90
        0
176
     1
 62
     7
176
     1
 62
   257
176
     1
 90
        1
176
     1
 90
        1
176
     1
 40
1.0
176
     1
 90
        8
176
     1
 62
     7
176
     1
 40
1.0
176
     1
 90
        1
176
     1
 90
        6
176
     1
 90
        2
176
     1
 62
     7
176
     1
 90
        3
176
     1
 90
        0
176
     1
 90
        0
176
     1
290
     0
176
     1
 90
       13
176
     1
 40
0.0
176
     1
 90
        0
176
     1
290
     0
176
     1
290
     1
176
     1
290
     1
176
     1
290
     0
176
     1
290
     0
176
     1
290
     0
176
     1
290
     0
176
     1
290
     0
176
     1
290
     0
176
     1
 90
       50
176
     1
 40
0.0
176
     1
 40
1.0
176
     1
 90
        0
176
     1
 62
    18
420
        0
176
     1
 90
       50
176
     1
 90
        3
176
     1
 62
     5
420
      255
176
     1
290
     0
176
     1
 90
       50
176
     1
 90
       50
176
     1
 90
       50
176
     1
290
     0
176
     1
 90
       50
176
     1
 62
   256
176
     0
 40
1.0
176
     0
 90
        2
176
     1
  1
strokes_ogs.tif
176
     1
290
     0
176
     1
 40
1.0
176
     1
 40
1.0
176
     1
  0
DICTIONARYVAR
  5
60E
102
{ACAD_REACTORS
330
60D
102
}
330
60D
100
DictionaryVariables
280
     0
  1
1:1
  0
DICTIONARYVAR
  5
616
102
{ACAD_REACTORS
330
60D
102
}
330
60D
100
DictionaryVariables
280
     0
  1
3.500000
  0
DICTIONARYVAR
  5
617
102
{ACAD_REACTORS
330
60D
102
}
330
60D
100
DictionaryVariables
280
     0
  1
acadiso.lin
  0
DICTIONARYVAR
  5
613
102
{ACAD_REACTORS
330
60D
102
}
330
60D
100
DictionaryVariables
280
     0
  1
Standard
  0
DICTIONARYVAR
  5
612
102
{ACAD_REACTORS
330
60D
102
}
330
60D
100
DictionaryVariables
280
     0
  1
Standard
  0
DICTIONARY
  5
60F
330
5A
100
AcDbDictionary
280
     1
281
     1
  3
ACAD_ROUNDTRIP_2008_TABLESTYLE_CELLSTYLEMAP
360
610
  0
CELLSTYLEMAP
  5
610
102
{ACAD_REACTORS
330
60F
102
}
330
60F
100
AcDbCellStyleMap
 90
        3
300
CELLSTYLE
  1
TABLEFORMAT_BEGIN
 90
        5
170
     1
 91
        0
 92
    32768
 62
   257
 93
        1
300
CONTENTFORMAT
  1
CONTENTFORMAT_BEGIN
 90
        0
 91
        0
 92
        4
 93
        0
300

 40
0.0
140
1.0
 94
        5
 62
     0
340
11
144
6.0
309
CONTENTFORMAT_END
171
     1
301
MARGIN
  1
CELLMARGIN_BEGIN
 40
1.5
 40
1.5
 40
1.5
 40
1.5
 40
1.5
 40
1.5
309
CELLMARGIN_END
 94
        6
 95
        1
302
GRIDFORMAT
  1
GRIDFORMAT_BEGIN
 90
        0
 91
        1
 62
     0
 92
       -2
340
14
 93
        0
 40
0.045
309
GRIDFORMAT_END
 95
        2
302
GRIDFORMAT
  1
GRIDFORMAT_BEGIN
 90
        0
 91
        1
 62
     0
 92
       -2
340
14
 93
        0
 40
0.045
309
GRIDFORMAT_END
 95
        4
302
GRIDFORMAT
  1
GRIDFORMAT_BEGIN
 90
        0
 91
        1
 62
     0
 92
       -2
340
14
 93
        0
 40
0.045
309
GRIDFORMAT_END
 95
        8
302
GRIDFORMAT
  1
GRIDFORMAT_BEGIN
 90
        0
 91
        1
 62
     0
 92
       -2
340
14
 93
        0
 40
0.045
309
GRIDFORMAT_END
 95
       16
302
GRIDFORMAT
  1
GRIDFORMAT_BEGIN
 90
        0
 91
        1
 62
     0
 92
       -2
340
14
 93
        0
 40
0.045
309
GRIDFORMAT_END
 95
       32
302
GRIDFORMAT
  1
GRIDFORMAT_BEGIN
 90
        0
 91
        1
 62
     0
 92
       -2
340
14
 93
        0
 40
0.045
309
GRIDFORMAT_END
309
TABLEFORMAT_END
  1
CELLSTYLE_BEGIN
 90
        1
 91
        1
300
_TITLE
309
CELLSTYLE_END
300
CELLSTYLE
  1
TABLEFORMAT_BEGIN
 90
        5
170
     1
 91
        0
 92
        0
 62
   257
 93
        1
300
CONTENTFORMAT
  1
CONTENTFORMAT_BEGIN
 90
        0
 91
        0
 92
        4
 93
        0
300

 40
0.0
140
1.0
 94
        5
 62
     0
340
11
144
4.5
309
CONTENTFORMAT_END
171
     1
301
MARGIN
  1
CELLMARGIN_BEGIN
 40
1.5
 40
1.5
 40
1.5
 40
1.5
 40
1.5
 40
1.5
309
CELLMARGIN_END
 94
        6
 95
        1
302
GRIDFORMAT
  1
GRIDFORMAT_BEGIN
 90
        0
 91
        1
 62
     0
 92
       -2
340
14
 93
        0
 40
0.045
309
GRIDFORMAT_END
 95
        2
302
GRIDFORMAT
  1
GRIDFORMAT_BEGIN
 90
        0
 91
        1
 62
     0
 92
       -2
340
14
 93
        0
 40
0.045
309
GRIDFORMAT_END
 95
        4
302
GRIDFORMAT
  1
GRIDFORMAT_BEGIN
 90
        0
 91
        1
 62
     0
 92
       -2
340
14
 93
        0
 40
0.045
309
GRIDFORMAT_END
 95
        8
302
GRIDFORMAT
  1
GRIDFORMAT_BEGIN
 90
        0
 91
        1
 62
     0
 92
       -2
340
14
 93
        0
 40
0.045
309
GRIDFORMAT_END
 95
       16
302
GRIDFORMAT
  1
GRIDFORMAT_BEGIN
 90
        0
 91
        1
 62
     0
 92
       -2
340
14
 93
        0
 40
0.045
309
GRIDFORMAT_END
 95
       32
302
GRIDFORMAT
  1
GRIDFORMAT_BEGIN
 90
        0
 91
        1
 62
     0
 92
       -2
340
14
 93
        0
 40
0.045
309
GRIDFORMAT_END
309
TABLEFORMAT_END
  1
CELLSTYLE_BEGIN
 90
        2
 91
        1
300
_HEADER
309
CELLSTYLE_END
300
CELLSTYLE
  1
TABLEFORMAT_BEGIN
 90
        5
170
     1
 91
        0
 92
        0
 62
   257
 93
        1
300
CONTENTFORMAT
  1
CONTENTFORMAT_BEGIN
 90
        0
 91
        0
 92
        4
 93
        0
300

 40
0.0
140
1.0
 94
        2
 62
     0
340
11
144
4.5
309
CONTENTFORMAT_END
171
     1
301
MARGIN
  1
CELLMARGIN_BEGIN
 40
1.5
 40
1.5
 40
1.5
 40
1.5
 40
1.5
 40
1.5
309
CELLMARGIN_END
 94
        6
 95
        1
302
GRIDFORMAT
  1
GRIDFORMAT_BEGIN
 90
        0
 91
        1
 62
     0
 92
       -2
340
14
 93
        0
 40
0.045
309
GRIDFORMAT_END
 95
        2
302
GRIDFORMAT
  1
GRIDFORMAT_BEGIN
 90
        0
 91
        1
 62
     0
 92
       -2
340
14
 93
        0
 40
0.045
309
GRIDFORMAT_END
 95
        4
302
GRIDFORMAT
  1
GRIDFORMAT_BEGIN
 90
        0
 91
        1
 62
     0
 92
       -2
340
14
 93
        0
 40
0.045
309
GRIDFORMAT_END
 95
        8
302
GRIDFORMAT
  1
GRIDFORMAT_BEGIN
 90
        0
 91
        1
 62
     0
 92
       -2
340
14
 93
        0
 40
0.045
309
GRIDFORMAT_END
 95
       16
302
GRIDFORMAT
  1
GRIDFORMAT_BEGIN
 90
        0
 91
        1
 62
     0
 92
       -2
340
14
 93
        0
 40
0.045
309
GRIDFORMAT_END
 95
       32
302
GRIDFORMAT
  1
GRIDFORMAT_BEGIN
 90
        0
 91
        1
 62
     0
 92
       -2
340
14
 93
        0
 40
0.045
309
GRIDFORMAT_END
309
TABLEFORMAT_END
  1
CELLSTYLE_BEGIN
 90
        3
 91
        2
300
_DATA
309
CELLSTYLE_END
  0
ENDSEC
  0
EOF
